Artist: Machine Head
Song: Struck a nerve
Album: The more things change
Intro :
|------------------------------------------------------------|
|------------------------------------------------------------|
|------------------------------------------------------------|
|------------------------------------------------------------|
|--2-2----------8-8---------8-8---------8----7--8--10--6--5--|
|--2-2----------8-8---------8-8---------8----7--8--10--6--5--|
Verse Riff :
|------------------------------------------|
|------------------------------------------|
|------------------------------------------|
|------------------------------------------|
|--0--2-2--0--2-2--0--2-2--0--2-2--0--8-8--|
|--0--2-2--0--2-2--0--2-2--0--2-2--0--8-8--|
|------------------------------------------------------------------|
|------------------------------------------------------------------|
|------------------------------------------------------------------|
|------------------------------------------------------------------|
|--0--2-2--0--2-2--0--2-2--0--8-8--0--2-2--0--2-2--0--2-2--0--8-8--|
|--0--2-2--0--2-2--0--2-2--0--8-8--0--2-2--0--2-2--0--2-2--0--8-8--|
|--------------------------------------------|
|--------------------------------------------|
|--------------------------------------------|
|--------------------------------------------|
|--0--2-2----7--8--10--6--5------------------|
|--0--2-2----7--8--10--6--5------------------|
Pre-Chorus Riff (only played before 1st verse) :
|----------------------------------|---------------------|
|----------------------------------|---------------------|
|----------------------------------|---------------------|
|----------------------------------|---------------------|
|--7--7p5--7--7p5--8--8p5--8--8p5--|--7--7p5--7--7p5--8--|
|--7--7p5--7--7p5--8--8p5--8--8p5--|--7--7p5--7--7p5--8--|
Chorus Riff :
pm pm
|-------------------------------------------------------|
|-------------------------------------------------------|
|-------------------------------------------------------|
|--10---9---10---7-------------10---9---10--8-----------|
|---8----7----8---5--5-5-5-5---8---7-----8--6--6-6-6-6--|
|-------------------------------------------------------|
A note after the first chorus :
|------------------------------------------------|
|--9---9---9---9---9---9---9---9--9---9---9---9--|
|--8---8---8---8---8---8---8---8--8---8---8---8--|
|--7---7---7---7---7---7---7---7--7---7---7---7--|
|------------------------------------------------|
|------------------------------------------------|
2nd verse intro :
|------------------------------------------------|
|------------------------------------------------|
|------------------------------------------------|
|------------------------------------------------|
|--2-2--------8-8--------8-8------X-X-8---X-X-8--|
|--2-2--------8-8--------8-8------X-X-8---X-X-8--|
Verse Riff.
Pre-Chorus Riff.
Chorus Riff.
After 2nd chorus :
|-------------------------|
|-------------------------|
|--8---------8---------8--|
|--7---------7---------7--|
|--6---------6---------6--|
|-------------------------|
4x 8x
|----------------------|------------------------|
|----------------------|------------------------|
|--7-------8-----------|--7-------8---7-------8-|
|------0---------------|-------0------------0---|
|----------------------|------------------------|
|----------------------|------------------------|
Heavy part :
|----------------------------------------------------------|
|----------------------------------------------------------|
|----------------------------------------------------------|
|----------------------------------------------------------|
|----------------1/6--6-6-6-6----------------1/4--4-4-4-4--|
|--0-0-0-1-0-0-0-1/6--6-6-6-6--0-0-0-1-0-0-0-1/4--4-4-4-4--|
|--------------------------------------------------------------------|
|--------------------------------------------------------------------|
|--------------------------------------------------------------------|
|--------------------------------------------------------------------|
|----------------1/10--10-10-10-10----------------1/13--13-13-13-13--|
|--0-0-0-1-0-0-0-1/10--10-10-10-10--0-0-0-1-0-0-0-1/13--13-13-13-13--|
Riff 1 :
pm pm pm pm 4x
|-------------------------------------|
|-------------------------------------|
|-------------------------------------|
|-------------------------------------|
|--0-0---0----1---0-0---0----1--------|
|--0-0---0----1---0-0---0----1--------|




Ваше мнение



Капча