Sick of You
Album: Supercharger
Artist Machine Head
Tabbed by FrAzZmAN
Email: [email protected]
Tuning: (Drop B) B F# B E G# C#
* - Harmonics
Intro
||--------------|
||--------------|
||--------------|
||-3-3--2-2--1--|
||-3-3--2-2--1--|
||-3-3--2-2--1--|
Verse
||-----------|
||-----------|
||-----------|
||-----------|
||-----------|
||-3-2--2-1--|
(listen to the cd for timing)
||------------------||--------------------------------|
||------------------||--------------------------------|
||-10-/-9-/-7-/-12-=||--------------------------------|
||------------------||-3-3--2-2--1--10/12/10/12/10/13-|
|| -8-/-7-/-5-/-10--||-3-3--2-2--1--------------------|
||------------------||-3-3--2-2--1--------------------|
Chorus
||-------------------------|
||-------------------------|
||-------------------------|
||-2-/-3-/-5-/-6-/-9-/-12--|
||-2-/-3-/-5-/-6-/-9-/-12--|
||-2-/-3-/-5-/-6-/-9-/-12--|




Ваше мнение



Капча