From: [email protected] (MACHINE HEAD)
Date: Fri, 26 May 95 13:30:44 GMT
CORRECTION (26.05.95)
"NONE BUT MY OWN" - MACHINE HEAD
From the Album "Burn my eyes"
by [email protected]

[email protected]------|
B-|----------------|-----------------------------1-|-------------------|
G-|----------------|-------------------------------|-------------------|
D-|-----2-3-2------|-------------------------------|--7--9--9-7--9-10--|
A-|---2-------2----|--2-2-2-2--2-2-2--2-2-3-0-2----|--5--7--7-5--7--8--|
D-|-2-----------2--|--2-2-2-2--2-2-2--2-2-3-0-2----|-------------------|
D-|-----------------------|--------------------------------------|
A-|-----------------------|--------------------------------------|
F-|-----------------------|--------------------------------------|
C-|--7--9--9--7--9--10--9-|-7-5-6-7--5-6-7--5-6-7---8--8--8--8---|
G-|--5--7--7--5--7---8--7-|-5-3-4-5--3-4-5--3-4-5---6--6--6--6---|
D-|-----------------------|--------------------------------------|
D-|---------------------------------------|
A-|---------------------------------------|
F-|------------------------------7--9--10-|
C-|--7-5-6-7--5-6-7--5-6-7---8---5--7---8-|
G-|--5-3-4-5--3-4-5--3-4-5---6------------|
D-|---------------------------------------|
Please let me know if s.th. is wrong!!!
Or add up Solo`s. I hate to figuer out Solo`s,
because I can`t play them :-) .
Sam Razialruh

--
/-------------------------------\
|* REAL EYES REALIZE REAL LIES *|
|* -- Robb Flynn -- *|
|* Sam Razialruh Ulm/Germany *|
|* [email protected] *|
|* FidoNet: 2:2487/8035.15 *|
\ ------------------------------/




Ваше мнение



Капча