Machine Head - Message in a bottle
Tabbed by Tom Wilson ([email protected])
All in Drop D.
(1)
E---------------------------------
B---------------------------------
G---------------------------------
D-----13-----9-----11-----6-7-----
A---11-----7-----9------4---------
D-11-----7----9------4------------
(2)
E-----------------------------------
B-----------------------------------
G-----------------------------------
D-----------------------------------
A--------------------------7-7-7-7-7
D-7-7-7-7-7-7-7-7-11-11-11----------
(3)
E----------------------------------
B----------------------------------
G----------------------------------
D----------------------------------
A----------------------------------
E-4-4-4-4-4-4-4-4-0-0-0-0-0-0-0-0--
(4)
E------------------------------------
B-9----10---9----10---9----7---------
G-8----9----8----9----8----6---------
D-6----7----6----7----6----4---------
A------------------------------------
E------------------------------------
(5)
E-------------------------------------
B-------------------------------------
G--12~~~~11-9-12~~--9---------------
D-----------------------11~~~~--------
A-------------------------------------
E-------------------------------------
This one goes after the second bar of #4 - a little solo over the top.
(6)
E-----------------------------------------------------------------
B-----------------------------------------------------------------
G--/13---------/18-16-14-13-14-13------------------------16-14-13-
D------16-14----------------------14---11-13-14-16-18-16----------
A-----------------------------------------------------------------
E-----------------------------------------------------------------
This one is over the top of #4 the second time.
you can figure out the order




Ваше мнение



Капча