MACHINE HEAD
IMPERIUM

Tuning: Cb Gb Cb Fb Ab Db

/ = Slide
* = Harmonic
~ = Let it Ring

Without Distortion
|---------------------------------|---------------------------------|
|---------------------------------|---------------------------------|
|---------------------------------|---------------------------------|
|-4/5~~~~~~~~~~~~~~~~~~~~~~~~~~~~~|-7/5~~~~~~~~~~~~~~~~~~~~~~~~~~~~~|
|-6-7~~~~~~~~~~~~~~~~~~~~~~~~~~~~~|-9/7~~~~~~~~~~~~~~~~~~~~~~~~~~~~~|
|---------------------------------|---------------------------------| X 4

Then...
|-----0--------0--------0--------------|
|--------------------------------------|
|-----------------------------------5*-| OR!
|---9---9---10---10---8---8---5*-5*----|
|-7-------7---------7-------7----------|
|--------------------------------------| X 4

And Then... With Distorion
|--------------------------------------|
|--------------------------------------|
|-------------5-5-5-5/3-3-3-3-------5*-|
|-0-2~~~~~~~~~~~~~~~~~~~~~~~~~5*-5*----|
|-0-2~~~~~~~~~~~~~~~~~~~~~~~~~---------|
|-0-2~~~~~~~~~~~~~~~~~~~~~~~~~---------|

Created By LifelessMetal
[email protected]




Ваше мнение



Капча