Artist: Machine Head
song: I Defy
Album: The Burning Red

TUNE TO:BEADGb

------------------------------------------------------------------------------|
------------------------------------------------------------------------------|
---------------7-----7--------------------------------------------------------|
-6-----6-------7-----7-------7^---7^p-0---------------------------------------|
-6-----6-------5-----5--------------------------------------------------------|
-4-----4-----0-------------0--------------------------------------------------|
intro . . & chorus
------------------------------------------------------------------------------|
------------------------------------------------------------------------------|
------------------------------------------------------------------------------|
---------------------------------/6-6-6---------------------------------------|
-6-6-4-6-6-4-6-6-4-6-6-4-6-6-4-4--------5-5-5-5-5-5---------------------------|
-4-4-2-4-4-2-4-4-2-4-4-2-4-4-2-2--------------------7-7-7-7-7-7-7-------------|
main riff
--------------17---16--------------------17---16------------------------------|
-15---------------------------------------------------------------------------|
--------------------------16--------------------------------------------------|
------------------------------------------------------------------------------|
------------------------------------------------------------------------------|
------------------------------------------------------------------------------|
verse riff 1
------------------------------------------------------------------------------|
------------------------------------------------------------------------------|
------------------------------------------------------------------------------|
-6--5--4--7--6------6--5--4--7--6-------6--5--4-------------------------------|
-------------------------------------------------7----------------------------|
------------------------------------------------------------------------------|
verse riff 2 all P.M. played with verse 1
------------------------------------------------------------------------------|
------------------------------------------------------------------------------|
------------------------------------------------------------------------------|
------------------------------------------------------------------------------|
-11-v-v-v-v-v-v-v-v-v-v-v-v-v-v-v-v-v-v-v-v-v---------------------------------|
------------------------------------------------------------------------------|
fill 1 - after 1st chorous
-5----------------------------------------------------------------------------|
-4----------------------------------------------------------------------------|
-2----------------------------------------------------------------------------|
-2----------------------------------------------------------------------------|
-0----------------------------------------------------------------------------|
------------------------------------------------------------------------------|
fill 2 - after 2nd chorous
------------------------------------------------------------------------------|
------------------------------------------------------------------------------|
------------------------------------------------------------------------------|
------------------------------------------------------------------------------|
------------------------------------------------------------------------------|
-4-3-2-5-4v-v-4-3-2-5-4v-v-4-3-2-0--------------------------------------------|
change 1
------------------------------------------------------------------------------|
------------------------------------------------------------------------------|
------------------------------------------------------------------------------|
------------------------------------------------------------------------------|
-6-5-4-7-6----6-5-4-7-6----6-5-4-2--------------------------------------------|
-4-3-2-5-4----4-3-2-5-4----4-3-2-0--------------------------------------------|
. . change 2
-5----5----5----5------------5------------------------------------------------|
-4----3----4----3----4-4-4-4-4------------------------------------------------|
-2----2----2----2----x-x-x-x-2------------------------------------------------|
-2----2----2----2----2-2-2-2-2----------------4--3--2--5---4----3-------------|
-0----0----0----0------------0----------------4--3--2--5---4----3-------------|
---------------------------------12--2--1--0--3---2----1-------------|
fill 3 - after change 2 . . . . . .
#
______________________________________________________________________________
# = While Palm Muting, push down a little bit harder to create a note between
3rd & 4th fret, or bend the string down slightly till the right pitch is
reached.




Ваше мнение



Капча