Machine head - From this Day
The song is played with a 7 string, however, if you do not own one, you
can tune your guitar (from low to high) BEADGB
~ = Vibrato
#/# = Slide
#^ = Bend note
E -------------------------------------------------------------
B -------------------------------------------------------------
G -------------------------------------------------------------
D -------------------------------------------------------------
A ----14/13---13-11-------14/13----13-12~----14/13---13---11---
E ----------13-----11-----------13----------------13--------11-
B 0-0-----------------0-0----------------0-0-------------------
E----------------------
B----------------------
G----------------13^---
D----------------------
A----14/13---13--------
E---------13-----------
B 0-0------------------

And thats It. any corrections email to [email protected]




Ваше мнение



Капча