Artist: Machine Head
Song: Exhale the vile
Album: The Burning Red

TUNE TO:BEADGb

----------------------------------------12------------------------------------
-------------------------------------------11---------------------------------
------------------------------------------------------------------------------
------------------------------------------------------------------------------
------------------------------------------------------------------------------
-0--0--0---0--0-0--0---0-0-0--0h1--0h1---------0---0-0-0-0---0-0-0--0h1--0h1--
. . . . . . . . . . .
-18----------------20---18----------------------------------------------------
----16----------17---------16-------------------------------------------------
------------------------------------------------------------------------------
------------------------------------------------------------------------------
------------------------------------------------------------------------------
------------------------------------------------------------------------------
Verse Play 3x
-18----------------20---------------------------------------------------------
----19----------17------------------------------------------------------------
------------------------------------------------------------------------------
------------------------------------------------------------------------------
------------------------------------------------------------------------------
------------------------------------------------------------------------------
Play 1x
------------------------------------------------------------------------------
------------------------------------------------------------------------------
-5-----------------------5---5-5--2----------------------------2---2-2--------
-5-----------------------5---5-5--2----------------------------2---2-2--------
-3-----------------------3---3-3--0----------------------------0---0-0--------
------------------------------------------------------------------------------
Chorus
------------------------------------------------------------------------------
------------------------------------------------------------------------------
------------------------------------------------------------------------------
-5---3---6---3---5------------------------------------------------------------
-5---3---6---3---5------------------------------------------------------------
-3---1---4---1---3------------------------------------------------------------
Fill 1
------------------------------------------------------------------------------
------------------------------------------------------------------------------
------------------------------------------------------------------------------
------------------------------------------------------------------------------
-----2-----2---------2--------------------------------------------------------
-0-0-0---0-0---0-0-0-0----5b--------------------------------------------------
. . . . . . Change
------------------------------------------------------------------------------
------------------------------------------------------------------------------
-7--7------7--7-------7--7-------7--7-----------------------------------------
-5--5------5--5-------5--5-------5--5-----------------------------------------
------------------------------------------------------------------------------
------------------------------------------------------------------------------
Fill 2




Ваше мнение



Капча