Down To None by Machine Head
Transcribed by Paul
[email protected]
74312137 icq

Tune Down 2 1/2 steps {B,E,A,D}

Riff #1
B-0

Riff #2
E-----7---------------------------------
B-0-0---0-3-3-1-0-----------------------

Riff #3
E---6-7-6-5---------6-7-6-5-------------
B-0---------6---0-0---------0-4-0-------

Riff #4
E---------------------------------------
B-0000000000000000000000000-etc---------

Riff #5
E---------------------------------------
B-000000000000etc-3-5-3-6---------------

Riff #6
E---------------------------------------
B-1-0-1-0-1-0---------------------------

Riff #4
Riff #5
Riff #6

Riff #7
E----------------------------------------
B-0-0-1--0-0-1--0-1-4-1------------------

Riff #4
Riff #5
Riff #6




Ваше мнение



Капча