davidian, Machine Head
[email protected]
Davidian
by Machine Head

Open D tuning
Intro
D ----5---------------5-------------------------5--------------5-------------
A -0---5----1---0-0---5----1--3--4--------0---5---1---0-0---5----1--3--1--
D -0--------1---0-0---------1--3--4--------0-------1---0-0---------1--3--1--
A.H P.M A.H A.H P.M A.H

Verse
A --0-0--0--0-0--00000--6--0--3--4------------------------
D --0-0--0--0-0--00000--6--0--3--4------------------------
pm

Next bit
D ---------------------555--------------------------------------------------------
A -0-3-0--65-0-3-5--555--0-1-0---0-3-0-65-0-3-5-111133331111----------
D -0-3-0--65-0-3-5--------0-1-0---0-3-0-65-0-3-5-111133331111----------
A.H P.M-----------I
I couldnt be bothhered tabbing the rest, you should be able to figure it from here.




Ваше мнение



Капча