Machine Head – Crashing Around You
Tabbed by Darklighter
Tuning form low to high: B, F#, B, E, G#, C#
Intro
|--------------------------------------|----------------------------|
|--------------------------------------|----------------------------|
|--------------------------------------|----------------------------|
|--------------------------------------|----------------------------|
|--------------------------------------|----------------------------|
|--0-0----0-0----0-0----0-0----0-0-1-1-|--0-0----0-0----0-0----0-0--|

Riff 1 (Chorus)
Guitar 1 (With Wah Filter)
|-------------------------------------------------------|
|-------------------------------------------------------|
|--7----14--7--15----14--12--7--14----12--14-10---9--5--|
|-------------------------------------------------------|
|--5----12--5--13----12--10--5--12----10--12--8---7--3--|
|-------------------------------------------------------|
|
| Guitar 2
|-------------------------------------------------------|
|-------------------------------------------------------|
|-------------------------------------------------------|
|--0----7---0---8---------------0-----7---0---8---------|
|--0----7---0---8---------------0-----7---0---8---------|
|--0----7---0---8---------------0-----7---0---8---------|

Guitar 1
|------------------------------------------|
|------------------------------------------|
|--7----14--7--15----14--12--14--15----17--|
|------------------------------------------|
|--5----12--5--13----12--10--12--13----15--|
|------------------------------------------|
|
| Guitar 2
|------------------------------------------|
|------------------------------------------|
|------------------------------------------|
|--0----7---0---8---------7---8------------|
|--0----7---0---8---------7---8------------|
|--0----7---0---8---------7---8------------|

Verse 1
Chorus
Guitar 1 (With Wah Filter)
|-------------------------------------------------------|
|-------------------------------------------------------|
|--7----14--7--15----14--12--7--14----12--14-10---9--5--|
|-------------------------------------------------------|
|--5----12--5--13----12--10--5--12----10--12--8---7--3--|
|-------------------------------------------------------|
|
| Guitar 2
|-------------------------------------------------------|
|-------------------------------------------------------|
|-------------------------------------------------------|
|--0----7---0---8---------------0-----7---0---8---------|
|--0----7---0---8---------------0-----7---0---8---------|
|--0----7---0---8---------------0-----7---0---8---------|

Guitar 1
|------------------------------------------|
|------------------------------------------|
|--7----14--7--15----14--12--14--15----17--|
|------------------------------------------|
|--5----12--5--13----12--10--12--13----15--|
|------------------------------------------|
|
| Guitar 2
|------------------------------------------|
|------------------------------------------|
|------------------------------------------|
|--0----7---0---8---------7---8------------|
|--0----7---0---8---------7---8------------|
|--0----7---0---8---------7---8------------|

Verse 2
|----------------------------|
|----------------------------|
|----------------------------|
|----------------------------|
|--x-x----x-x----x-x----x-x--|
|--x-x----x-x----x-x----x-x--|
pick scrapes

Chorus
Guitar 1 (With Wah Filter)
|-------------------------------------------------------|
|-------------------------------------------------------|
|--7----14--7--15----14--12--7--14----12--14-10---9--5--|
|-------------------------------------------------------|
|--5----12--5--13----12--10--5--12----10--12--8---7--3--|
|-------------------------------------------------------|
|
| Guitar 2
|-------------------------------------------------------|
|-------------------------------------------------------|
|-------------------------------------------------------|
|--0----7---0---8---------------0-----7---0---8---------|
|--0----7---0---8---------------0-----7---0---8---------|
|--0----7---0---8---------------0-----7---0---8---------|

Guitar 1
|-------------------------------------------------|
|-------------------------------------------------|
|--7----14--7--15----14--12--14--15----17----19--|
|-------------------------------------------------|
|--5----12--5--13----12--10--12--13----15----17--|
|-------------------------------------------------|
|
| Guitar 2
|-------------------------------------------------|
|-------------------------------------------------|
|-------------------------------------------------|
|--0----7---0---8---------7---8---7-----5--0------|
|--0----7---0---8---------7---8---7-----5--0------|
|--0----7---0---8---------7---8---7-----5--0------|

|--------|
|--------|
|--7-----|
|--7--8--|
|--5--8--|
|-----8--|
Riff 2
|----------------------------------------|
|----------------------------------------|
|--7---------7---------7---------7-------|
|--7----8----7----3----7----3----7----8--|
|--5----8----5----3----5----3----5----8--|
|-------8---------3---------3---------8--| x 2

Intro riff w/second guitar part)
Guitar 1 (with wah filter)
|---------------------------------------|---------------------------------------|
|---------------------------------------|---------------------------------------|
|---------------------------------------|------------------------------7-7-8-8--|
|---------------------------------------|---------------------------------------|
|---------------------------------------|------------------------------5-5-6-6--|
|---------------------------------------|---------------------------------------|
|
|
| Guitar 2
|---------------------------------------|---------------------------------------|
|---------------------------------------|---------------------------------------|
|---------------------------------------|---------------------------------------|
|---------------------------------------|---------------------------------------|
|---------------------------------------|---------------------------------------|
|--0-0----0-0----0-0----0-0----0-0-1-1--|--0-0----0-0----0-0----0-0----0-0-1-1--|
Guitar 1
|-------------------------------------------------------------------------------|
|-------------------------------------------------------------------------------|
|--7-7--7-7-7--7-7-7--7-7-7-7--7-7-8-8--|--7-7--7-7-7--7-7-7--7-7-7-7--7-7-8-8--|
|---------------------------------------|---------------------------------------|
|--5-5--5-5-5--5-5-5--5-5-5-5--5-5-6-6--|--5-5--5-5-5--5-5-5--5-5-5-5--5-5-6-6--|
|---------------------------------------|---------------------------------------|
|
|
| Guitar 2
|---------------------------------------|---------------------------------------|
|---------------------------------------|---------------------------------------|
|---------------------------------------|---------------------------------------|
|---------------------------------------|---------------------------------------|
|---------------------------------------|---------------------------------------|
|--0-0----0-0----0-0----0-0----0-0-1-1--|--0-0----0-0----0-0----0-0----0-0-1-1--|

Chorus
Guitar 1 (With Wah Filter)
|------------------------------------------------------------|
|------------------------------------------------------------|
|------------------15-------------7--14----12--14-10---9--5--|
|------------------------------------------------------------|
|------------------13-------------5--12----10--12--8---7--3--|
|--0---------------------------------------------------------|
|
| Guitar 2
|------------------------------------------------------------|
|------------------------------------------------------------|
|------------------------------------------------------------|
|------------------8------------------0----7---0---8---------|
|------------------8------------------0----7---0---8---------|
|--0---------------8------------------0----7---0---8---------|

Guitar 1
|----------------------------------------------|
|----------------------------------------------|
|--7----14--7--15----14--12--14--15----17------|
|----------------------------------------------|
|--5----12--5--13----12--10--12--13----15------|
|----------------------------------------------|
|
| Guitar 2
|----------------------------------------------|
|----------------------------------------------|
|----------------------------------------------|
|--0----7---0---8--------7---8----7-----5------|
|--0----7---0---8--------7---8----7-----5------|
|--0----7---0---8--------7---8----7-----5------|

Guitar 1
|-------------------------------------------------------|
|-------------------------------------------------------|
|--7----14--7--15----14--12--7--14----12--14-10---9--5--|
|-------------------------------------------------------|
|--5----12--5--13----12--10--5--12----10--12--8---7--3--|
|-------------------------------------------------------|
|
| Guitar 2
|-------------------------------------------------------|
|-------------------------------------------------------|
|-------------------------------------------------------|
|--0----7---0---8----------------0----7---0---8---------|
|--0----7---0---8----------------0----7---0---8---------|
|--0----7---0---8----------------0----7---0---8---------|

Guitar 1
|--------------------------------------------|
|--------------------------------------------|
|--7----14--7--15----14--12--14--15----17----|
|--------------------------------------------|
|--5----12--5--13----12--10--12--13----15----|
|--------------------------------------------|
|
| Guitar 2
|--------------------------------------------|
|--------------------------------------------|
|--------------------------------------------|
|--0----7---0---8---------7---8---7-----5----|
|--0----7---0---8---------7---8---7-----5----|
|--0----7---0---8---------7---8---7-----5----|

Outro
|---------------------|
|---------------------|
|---------------------|
|---------------------|
|---------------------|
|--0-0----0-0----0-0--|




Ваше мнение



Капча