MACHINE HEAD
A NATION ON FIRE
Burn My Eyes
Tabbed by:gothichild_666
Intro: 1 2
------------------- --------------------|
|------------------------------|---------------------|---------------------|
|------------------------------|---------------------|------------9--------|
|-------7_9_7--------------9---|--------8------------|---------8-----------|
|----7---------7--------7----7-|-----6----6----------|------6--------------|
|--0------------------8--------|--6------------------|----6----------------|
|------------------------------|---------------------|---------------------|
|---------------------------------------------------------------------------|
|---------------------------------------------------------------------------|
|-------7_9_7---9---------9------------8--------------7_9_7------10_7_10----|
|----7--------7---------7----7-------6----6--------7---------7-----------9--|
|--0------------------8------------6-------------0--------------------------|
|---------------------------------------------------------------------------|
|------------------------------------------------------------------------|
|------------------------------------------------------------------------|
|------------------9-------8----8--87--------7_5------------------------|
|--9_10_9_7-----7--------x-------------------------7---------6-----------|
|-------------8---------6-------6--65--5--(5)--------0------------------|
|--------------------------------------------------------0------0--------|
|-----------------------------------------------------------------------|
|------------------------------------------------------|----------------|
|----(7)-----(7)-----------------------7_5------------/-----------------|
|---------6---------6-5_0-------0-----------7-------/-------------------|
|---------------------------------0-----------0----6--------------------|
|---------------------------0-------------------0-----------------------|
|-------------------------------------------------------|
|-------------------------------------------------------|
|----------7_5-------------------(7)-----(7)------------|
|----0----------7---------6-----------6-------6-5_0-----|
|------0----------0-------------------------------------|
|-0-----------------0--------0--------------------------|
|----------------------------------11---------------------------------|
|---------------------------------------------------------------------|
|----------7_5------------5----/8-----8-----7-------8------7----------|
|----0----------7---------6-------------------0-------0-------0-------|
|-------0----------0--------------------------------------------------|
|-0------------------0---------------------------0--------0------0----|
|------------------------------------------------------------------|
|------------------------------------------------------------------|
|--8-----8------8--8_7----8-------7-----8--------10----8-----------|
|----9-----9----------0----0-------0------9--------------9---------|
|------8-----8------------------------------8-------8--------------|
|------------------------0------0-----0----------------------------|
|------------------------------------------------------------------------|
|------------------------------------------------------------------------|
|------------------------------------------------------------------------|
|----0-------0-------0--------0----------6-----6-------------------------|
|------------------------------------------------------------------------|
|-0-----0-1----1-0-------0-1---------6------6----------------------------|
|-------10---------10--------10-------------16------16-------------------|
|----------10---------10--------10---------------------------------------|
|----------------------------------10-----------13------13---------------|
|--12----------13----------12--------------------------------------------|
|------------------------------------------------------------------------|
|------------------------------------------------------------------------|
|------------------------------------------|
|------------------------------------------|
|------------------------------------------|
|------------------------------------------|
|-0-0-0-1-1-1-0-0-0-1-1-1-0-0--5_6-0-6-----|
|-0-0-0-1-1-1-0-0-0-1-1-1-0-0------0-6-----|
Gtr I
|-------------------------------------------------------------------|
|-----------------------------------------------11--11-11-11--------|
|--9--9--9--10---10--10---9--9--9---10-10--10-----------------------|
|------------------------------------------------8--8--8--8---------|
|--7--7--7---8---8---8----7--7--7----8--8---8-----------------------|
|-------------------------------------------------------------------|
Gtr II
|-------------------------------------------------------------------|
|-------------------------------------------------------------------|
|-------------------------------------------------------------------|
|---9-9--9--10--10---10---9--9--9---10-10--10-----------------------|
|---7-7--7---8---8---8----7--7--7----8--8---8----8--8--8--8---------|
|------------------------------------------------8--8--8--8---------|
Chorus:
|------------------------------------|
|------------------------------------|
|------------------------------------|
|------------------------------------|
|--/6-0-3-0-/6-0-0--3--0-1-3---------|
|--/6-0-3-0-/6-0-0--3--0-1-3---------|
Here comes The thing:
|-----------------------------------|
|-----------------------------------|
|-----------------------------------|
|------------------10-10-10--6-6-6--|
|-------------------8--8--8--4-4-4--|
|--0-0-0-0-0-0-0-0------------------|
|---------------------------------|
|---------------------------------|
|---------------------------------|
|-------------------3-3-3--6-6-6--|
|-------------------1-1-1--4-4-4--|
|--0-0-0-0-0-0-0-0----------------|
Chorus: 1 2
---------------- ---------------------|
|---------------||----------------|---------------------|
|---------------||----------------|---------------------|
|---------------||----------------|---------------------|
|---------------||----------------|---------------------|
|----0---3-5-6--||----0---3-5-1---|----6--0----3--5-----|
|--x-0-0-3-5-6--||--x-0-0-3-5-1---|--0-6--0----3--5-----|
| | | | |
A Na-tion On Fire




Ваше мнение



Капча