----------------------------------------------------------------
SONG: Bulldozer
BAND: Machine Head
ALBUM: Supercharger
TRANSCRIBED BY: Chris Frazier ([email protected])
DATE: 09-03-2K1
----------------------------------------------------------------

TUNING: Drop D and down 1 and 1/2 steps (B F# B E G# C#)

Riff 1:
C#|------------------------------------------|
G#|------------------------------------------|
E |-8-7---------------------8-----8-----8----|

B |-8-7-0-0-0-0-0-0-0-0-0-0-8-0-0-8-0-0-8-0--|
F#|-6-5-0-0-0-0-0-0-0-0-0-0-6-0-0-6-0-0-6-0--|
B |-----0-0-0-0-0-0-0-0-0-0---0-0---0-0---0--|
PM - - - - - - - - - - - - - - - - - - - -

Riff 2:
C#|------------------------------------------|
G#|------------------------------------------|
E |-8-7--------------------------------------| last time, don't play the
B |-8-7-0-0-0-0-0-0-0-0-0-0-1-----3----(1)---| last (1) and hold the 3
F#|-6-5-0-0-0-0-0-0-0-0-0-0-1-----3----(1)---|
B |-----0-0-0-0-0-0-0-0-0-0-1-----3----(1)---|
PM - - - - - - - - - - - - -

Riff 3: (flanger)
C#|----------------------------------------|
G#|----------------------------------------|
E |----------------------------------------|
B |-0-----1-1-1-1-0-----3--1--0--1--0------|
F#|-0-----1-1-1-1-0-----3--1--0--1--0------|
B |-0-----1-1-1-1-0-----3--1--0--1--0------|

Riff 4: (clean)
C#|--------------------------------|
G#|--------------------------------|
E |--------------------------------|
B |--------------------------------|
F#|--------------------------------|
B |-3-1-0-1-0--3-1-0-1-0--3-1-0----|

Riff5 :
C#|---------------------------------|
G#|---------------------------------|
E |---------------------------------| riff played in 5th's later
B |---------------------------------| in the song w/o PM's
F#|---------------------------------|
B |-3-1-0-1-0-0-3-1-0-1-0-0-3-1-0-0-|
PM - - - - - - - - - - - - - - - -

Riff 6: (w/ wah)
C#|--------------------------------|
G#|--------------------------------|
E |-10-9--8-7--10-9--8-7--10-9--7-8|
B |--------------------------------|
F#|--------------------------------|
B |--------------------------------|

Riff 7:
C#|---------------------------------------|
G#|---------------------------------------|
E |---------------------------------------|
B |-6-6-6-6-6-6-6-6-6-6-6-6-6-6-6-9-9-9-9-|
F#|-6-6-6-6-6-6-6-6-6-6-6-6-6-6-6-9-9-9-9-|
B |-6-6-6-6-6-6-6-6-6-6-6-6-6-6-6-9-9-9-9-|

Riff 8:
C#|-------|
G#|-------|
E |-7~----|
B |-------|
F#|-------|
B |-------|

Riff 9:
C#|---------------------------------------|
G#|---------------------------------------|
E |---------------------------------------|
B |-6-6-6-6-6-6-6-6-6-6-6-6-6-6-6-9-9-9-9-|
F#|---------------------------------------|
B |---------------------------------------|

Riff 10:
C#|-------------------------------|
G#|-------------------------------|
E |-------------------------------|
B |-2b--0--1--0--2b--0--1--0--0-0-|
F#|-2b--0--1--0--2b--0--1--0--0-0-|
B |-2b--0--1--0--2b--0--1--0--0-0-|
PM - -




Ваше мнение



Капча