Machine Head: Bow Down To None

Detune the E string 1 or 1 and a half steps and whatever
sounds better is the one. These are all the riffs except any
parts with lyrics but the end riff I included

---7-6-5--------7-6-5---------------------------------------------------------
---------6------------6----6-6-6-6-6-6----------------------------------------
------------------------------------------------------------------------------
------------------------------------------------------------------------------
------------------------------------------------------------------------------
-0------------0---------------------------------------------------------------
w/delay

------------------------------------------------------------------------------
------------------------------------------------------------------------------
------0-----------------0-----------------------------------------------------
------9-----------------9-----------------------------------------------------
------------------------------------------------------------------------------
-0--0----0-3b--3-4-0--0-------------------------------------------------------
Not 100about this part but work with it a bit

------------------------------------------------------------------------------
------------------------------------------------------------------------------
------------------------------------------------------------------------------
------------------------------------------------------------------------------
---2-1-0----------2-1-0-------------------------------------------------------
-0-------3-0--0-0-------3-3---------------------------------------------------
A. harmonis

Verse riffs i couldn't figure out

------------------------------------------------------------------------------
------------------------------------------------------------------------------
------------------------------------------------------------------------------
------------------------------------------------------------------------------
-0-0-1---0-1---2--0-1-0-3-----------------------------------------------------
-0-0h1---0h1-0h2--0h1-0h3-----------------------------------------------------
Cool riff with rests, mutes and X's

------------------------------------------------------------------------------
------------------------------------------------------------------------------
------------------------------------------------------------------------------
------------------------------------------------------------------------------
--3-0-3-0-30------------------------------------------------------------------
--1-0-1-0-10--0000------------------------------------------------------------
Bow done pm-- to NONE!!!




Ваше мнение



Капча