This is the solo part (near the end) in Blood of the Zodiac (Machine Head).
This is made by ear and I've tested it like a 100 times. It might have minor
problems which should be easy to fix (not to mention the missing parts).
Pretty much correct, check it out.
Example: 16/11 = slide from 16th fret to 11th.
Example: 17^ = bend
|-------------------------------------------------------------|
|-------------------------------------------------------------|
|-------------------------------------------------------------|
|-16/11-11--12/9-9--9-11-11-11-12-11--------------------------|
|-----------------------------------12-10-10------------------|
|-------------------------------------------------------------|
|-------------------------------------------------------------|
|-------------------------------------------------------------|
|-------------------------------------------------------------|
|-------------------------------------------------------------|
|---12-10-10--9-10-10-10-10-9-9-9-----------------------------|
|-------------------------------------------------------------|
|-------------------------------------------------------------------|
|-------------------------------------------------------------------|
|----------------------------------------------------------------19^|
|-12-11-9-12-11-12-14-12-14-17^--16-21---16/11-9-11-16---11-9-11----|
|-------------------------------------------------------------------|
|-------------------------------------------------------------------|
|---------------------------------------------------------------------------|
|---------------------------------------------------------------------------|
|-16-17-16-14-16-17--16-17-16-14-16-17--16-17-16-14-16-17--16-17-16-14-16-17|
|---------------------------------------------------------------------------|
|---------------------------------------------------------------------------|
|---------------------------------------------------------------------------|

|-------------------------------------------------------------|
|-------------------------------------------------------------|
|-19-17-16-14-16----------------------------------------------|
|----------------17-19-16-17-14-16----------------------------|
|----------------------------------17-------------------------|
|-------------------------------------------------------------|
>>> UNKNOWN PART > UNKNOWN PART




Ваше мнение



Капча