Intro (followed by 2)
e ---------------------0---|
A -------3--------3------3-|
G ----0--------0-----------|
A -------------------------|
D --5--------5-------5-----|
E -------------------------|
Intro 2
e ------------------------------|
B ------3---------3-------------|
G ---0---------0----------5--0--|
A ------------------------------|
D --5--------5--------5---------|
E ------------------------------|
Play Both Twice
*tip: You use the position of chord C , and Shift it down to the
Fifth Fret.
This Is Just The Intro , Hope You All Like It.
Get M2M Big Room Album. It Rocks!!!!
Kelvin




Ваше мнение



Капча