Title: Wanna Be Where You Are
Artist: M2M
Album: The Big Room
Written By: Marion Elise Raven
Tabbed By: Juan De Jesus Ayala Patiсo
Esto es lo que toca Marion en el piano pero en guitarra, lo de Marit no lo puse
por que son arpegios demasiado sencillos y harнan el tab muy largo, no quiero
que pase lo mismo que con mi tab de donґt, ni siquiera hace algunas figuras solo
pone el tono y hace el arpegio pero si aъn asн lo quieren mбndenme un e-mail
[email protected] y se los paso
CHORDS:
Piano (Marion) Guitar (Marit)
Capo on 7th fret Without capo
C 0 3 2 0 1 0 G 3 2 0 0 3 3
Am 0 0 2 2 1 0 Em7 0 2 2 0 3 3
Dm X X 0 2 3 1 Am 0 0 2 2 1 0
G 3 2 0 0 0 3 D X X 0 2 3 2
F 1 3 3 2 1 1 C 0 3 2 0 1 0
G/B X 2 0 0 0 3 D/F# 3 0 X 3 2 3
_____________________________________________________________________________
TABS:
Piano (Marion)
Intro:
C
b |-0----0------------3-0----0---------|
f#|-----------3----3--------------3----|
d |---0----0----0----0----0----0-------|
a |------------------------------------|
e |-3---------3---------3---------3----|
B |------------------------------------|
Verses 1 2 And Interlude:
C
b |-0----0------------3-0----0----0----0-----|
f#|-----------3----3-----------------------0-|
d |---0----0----0----0----0----0----0--------|
a |------------------------------------------|
e |-3---------3---------3---------3--------2-|
B |------------------------------------------|
Am
b |-------------------0----------------------|
f#|-1----1----0----0----1----1----0----------|
d |---2----2----2----2----2----2-------------|
a |------------------------------------------|
e |-0---------0---------0---------0----------|
B |------------------------------------------|
C
b |-0----0------------3-0----0----0----0-----|
f#|-----------3----3-----------------------0-|
d |---0----0----0----0----0----0----0--------|
a |------------------------------------------|
e |-3---------3---------3---------3--------2-|
B |------------------------------------------|
Am
b |-------------------0----------------------|
f#|-1----1----0----0----1----1----0----------|
d |---2----2----2----2----2----2-------------|
a |------------------------------------------|
e |-0---------0---------0---------0----------|
B |------------------------------------------|
Chorus And Solo:
Dm C
b |-3-3-3-1-0-3-----0----1-1-1-0--|-0---------0-0-0-----|
f#|---------------3--------------3|-----1-3---------3-1-|
d |-------------2-----------------|---0-----------------|
a |-----------0---------0---------|---------------------|
e |-------------------------------|3---------3----------|
B |-------------------------------|---------------------|
G/B C
b |---------------------|0----0----------------|
f#|-3----0-----3-3-3---0|1----1----3----1----0-|
d |----0---5----------5-|--0----0----0---------|
a |---------------------|----------------------|
e |-2---------2---------|3---------3---------2-|
B |---------------------|----------------------|
Am G F
b |-----------|----------|--------------------|
f#|-1----1----|0----0----|1----1----0----0----|
d |-2----2----|0----0----|2----2----0----0----|
a |---2----2--|--0----0--|--3----3----0----0--|
e |-0---------|----------|--------------------|
B |-----------|3---------|1---------1---------|
Am G F
b |-----------|----------|--------------------|
f#|-1----1----|0----0----|1----1----0----0----|
d |-2----2----|0----0----|2----2----0----0----|
a |---0----0--|--0----0--|--3----3----0----0--|
e |-0---------|----------|--------------------|
B |-----------|3---------|1---------1---------|

b |-0----0----0--|
f#|-1----1----3--|
d |---0----0-----|
a |--------------|
e |--------------|
B |-1---------1--|
Verse 3 (Ending):
C
b |-0----0------------3-0----0----0----0-----|
f#|-----------3----3-----------------------0-|
d |---0----0----0----0----0----0----0--------|
a |------------------------------------------|
e |------------------------------------------|
B |------------------------------------------|
Here I go Again...
Am
b |-------------------0----------------------|
f#|-1----1----0----0----1----1----0----------|
d |---2----2----2----2----2----2-------------|
a |------------------------------------------|
e |------------------------------------------|
B |------------------------------------------|
...Crying
C
b |-0----0------------3-0----0----0----0-----|
f#|-----------3----3-----------------------0-|
d |---0----0----0----0----0----0----0--------|
a |------------------------------------------|
e |-3---------3---------3---------3--------2-|
B |------------------------------------------|
Am G F
b |----------|----------|--------------------|
f#|-1----1---|-0----0---|-1-------------0----|
d |-2----2---|-0----0---|------0-2----2------|
a |---2----2-|---0----0-|----3---------------|
e |-0--------|----------|--------------------|
B |----------|-3--------|-1--------1---------|
F
b |-0----0-----0------3-|------------0-------||
f#|-1----1-----3----3---|--------1-3---------||
d |---0----0------0-----|------0-------------||
a |---------------------|----2---------------||
e |---------------------|--3-----------------||
B |-1---------1---------|--------------------||
...I wanna be where you are
_____________________________________________________________________________
Guitar (Marit)


VERSE 1:
G
Here I go again
Em7
Standing in your arms crying
G
Here you go again
Em7
Make me forget everything
You keep me smiling
CHORUS 1:
Am
They say our loveґs just a phase
G
That it's just for some days
D/F#
But, I'm going so far
G Em7
I wanna be where you are
D C Em7 D C
He loves me, he loves me
VERSE 2:
G
Here I go again
Em7
Calling you every day
G
Here you go again
Em7
Make me forget the longing
I love everything that you say
CHORUS 2:
Am
They say our love is just a phase
G
Who believes that anyway?
D/F#
But I'm going so far
G Em7
I wanna be where you are
D C Em7 D C
He loves me, he loves me

INTERLUDE:
G, Em7, G, Em7
I Wanna be, I wanna be where you are...
SOLO : Am, G, D/F#, G, Em7
D C Em7 D C
He loves me, he loves me
VERSE 3: (Only piano in the 1st line)

Here I go again standing in your arms crying
G
It starts all over again
Em7 D C
Baby, I love you
G
I wanna be where you are




Ваше мнение



Капча