Title: Girl In Your Dreams (Disney Concert)
Artist: M2M
Album: Shades Of Purple
Written By: Marion E. Raven
Tabbed By: Juan De Jesъs Ayala Patiсo
CHORDS:
D X 0 0 2 3 2
G 3 2 0 0 0 3
A 0 0 2 2 2 0
G/F# 2 2 0 0 0 3
Em 0 2 2 0 0 0
INTRO: (Repeat 2x)
D A G
e|----------|---------|-----------------
B|--3---3---|-2---2---|-0---0---0---0---
G|----2---2-|---2---2-|---0---0---0---0-
D|--0-------|---------|-----------------
A|----------|-0-------|-----------------
E|----------|---------|-3-------3-------
VERSE: (Repeat 2X)
D A G A
e|--------0-|----------|-----3---|-----------
B|------3---|----2p0---|-------0-|-------0h2-
G|----2-----|--------2-|---0-----|-----2-----
D|--0-------|---2------|---------|---2-------
A|----------|-0--------|---------|-0---------
E|----------|----------|-3-------|-----------
D A G
e|---------0-|----------|------3-------------
B|-3-----3---|-----2p0--|--------0-------3--3
G|-----2-----|--------0-|----0--------0----0-
D|-0---------|---2------|--------------------
A|-----------|-0--------|--------------------
E|-----------|----------|--3-------3---------
CHORUS:
D A G
e|-----------|---------|--------------------
B|---3---3---|-2---2---|-0---0----0---0-----
G|-----2---2-|---2---2-|---0---0----0---0---
D|--0--------|---------|--------------------
A|-----------|-0-------|--------------------
E|-----------|---------|-3--------3---------
D A G
e|-----------|---------|--------------------
B|--3----3---|-2---2---|-0---0----0---0-----
G|-----2---2-|---2---2-|---0---0----0---0---
D|--0--------|---------|--------------------
A|-----------|-0-------|--------------------
E|-----------|---------|-3--------3---------
D A G G/F# Em
e|-----------|---------|------|---|-------------
B|--3----3---|-2---2---|--0---|-0-|-0-----0-----
G|-----2---2-|---2---2-|----0-|---|-----0-------
D|--0--------|---------|------|---|---------2---
A|-----------|-0-------|------|---|-------------
E|-----------|---------|-3----|-2-|-0-----------
D A Em G/F# G
e|-----------|---------|------|---|-------------------
B|--3----3---|-2---2---|-0---0|-0-|-0---0---0---0---0-
G|-----2---2-|---2---2-|---0--|---|---0---0---0---0---
D|--0--------|---------|------|---|-------------------
A|-----------|-0-------|------|---|-------------------
E|-----------|---------|-0----|-2-|-3-------3---------
BRIDGE:
D A G
e|-----------|---------|--------------------
B|--3----3---|-2---2---|-0---0----0---0-----
G|-----2---2-|---2---2-|---0---0----0---0---
D|--0--------|---------|--------------------
A|-----------|-0-------|--------------------
E|-----------|---------|-3--------3---------
D A G G/F# Em
e|-----------|---------|------|---|-------------
B|--3----3---|-2---2---|--0---|-0-|-0-----0-----
G|-----2---2-|---2---2-|----0-|---|-----0-------
D|--0--------|---------|------|---|---------2---
A|-----------|-0-------|------|---|-------------
E|-----------|---------|-3----|-2-|-0-----------
D A G
e|-----------|---------|------
B|--3----3---|-2---2---|-0----
G|-----2---2-|---2---2-|------
D|--0--------|---------|------
A|-----------|-0-------|------
E|-----------|---------|-3----
You Showed me how to cry...
D A Em G/F# G
e|-----------|---------|------|---|---------
B|--3----3---|-2---2---|-0---0|-0-|-0---0---
G|-----2---2-|---2---2-|---0--|---|---0---0-
D|--0--------|---------|------|---|---------
A|-----------|-0-------|------|---|---------
E|-----------|---------|-0----|-2-|-3-------
INTRO: (D, A, G) X2
VERSE 1:
D A G A
I was walking down the street one day
D A G
Then I saw you I didn't know what to say
D A
Your eyes were shining
G A
Your smile was so kind
D A G
When I saw you I wanted you to be mine
CHORUS:
D A G
Maybe I don't have the blonde hair you like
D A G
Or maybe I don't have eyes like the sky
D A G G/F# Em
And I'm not sure if I'm the girl in your dreams
D A Em G/F# G
But I can show you what love means
VERSE 2:
D A G A
One day you came and talked to me
D A G
And you said we are meant to be
D A G A
I was happy, everything was so nice
D A G
But then I found out that everything was a lie
CHORUS: (REPEAT)
INTRO: (REPEAT)
BRIDGE:
D A G
How could you do this to me
D A G G/F# G
You said we are meant to be
D A G
You showed me how to cry
D A Em G/F# G
When you told me everything was a lie
CHORUS: (REPEAT)
INTRO: (REPEAT)




Ваше мнение



Капча