Title: The Day You Went Away
Tabbed by: E.J. Gemzon
=> [email protected]
* I made this w/ reference to a piano score.
I substitute the octave of some notes in it
to suit for guitar.
* this another one is for Clarissa4 my talented LITTLE DIVA
from Singapore...hehe ^_^
Verse Chords = Intro Chords
Pre Chorus: D, A, Bm, F#m, G, Bm, A
Chorus: D, D/C#, Bm, Bm/A, G, A, D
D, D/C#, Bm, Bm/A, G, A
D/C# X44232
Bm/A X0X432
Intro:
Bm A
e------------0-------|------------------|
b--3-------------3---|-2--------3---2---|
g--4----4------0-----|-2----2-----------|
d--4--4---4--------4-|-2--2---2---4---2-|
a--------------------|------------------|
E--------------------|------------------|
G F#
e-------------------|-----------------|
b--0--------2---0---|-2----0----------|
g--0----0-----------|-3-------3--(3)--|
d--0--0---0---2---2-|-4----2--4--(4)--|
a-------------------|---4-------------|
E-------------------|-----------------|

F#
e-Repeat-the-|--------------------|
b------------|-2---0--------------|
g--first-----|-3------3-----------|
d---three----|-4---2--4-----------|
a---bars-----|---4----------------|
E------------|--------------------|
Well I won
Bm
der....so on
Ending
Bm A
e------------0-------|------------------|
b--3-------------3---|-2--------3---2---|
g-------4------0-----|-2----2-----------|
d-----4---4--------4-|----2---2---4---2-|
a--------------------|------------------|
E--------------------|------------------|
G F#
e--------------------|--------------------|
b--0--------0-2-3--5-|--(5)----0----------|
g--0----0---0-2-4--6-|--(6)-------3--(3)--|
d-----0---0----------|---------2--4--(4)--|
a--------------------|------4-------------|
E--------------------|--------------------|
I hope u guys will b able to get it
right...contact me on my e-mail add.
I should be glad to help U.
www.guitartabs.cc
www.olga.net
www.ultimate-guitar.com




Ваше мнение



Капча