Title: pretty boy (CD Version)
Written by: Bottolf Lodeme/Nora Skaug
Artist: m2m
Album: Shades of Purple
Tabbed By: Juan De Jesъs Ayala Patiсo and E.J. Gemzon
Mi Amigo Gemzon me motivo a hacer estos tabs comenzando la cancion pretty boy
acustica, los versos no los pude sacar muy bien por que no tengo el cd por que
una personita se encargo de rallarlo pero lo saque de un cassette que grabe de
reserva, pero se escucha mal, asi que en compensacion les tengo una sorpresita al
final
*Capo on The 1 Fret*
Chords: (Related to Capo)
C 0 3 2 0 1 0
Am X 0 2 2 1 0
F 1 3 3 2 1 1
G 3 2 0 0 3 3
Dm X X 0 2 3 1
Em 0 2 2 0 0 0
G/B X 2 0 0 3 3
Fm 1 3 3 1 1 1
G#Dim 4 X 3 4 3 0
F/G 3 X 3 2 1 1
C/G 3 3 2 0 1 0
C/E 0 X 2 0 1 0
G7 3 2 0 0 0 1
____________________________________________________________________________
TABS:
GUITAR 2:(WITHOUT CAPO)
Intro:
Option 1: (Credits to E.J. Gemzon)
e-----1--(1)h2--1------^^^-----^^^^|
b------------------4--2----4--2----|
g--1-------------------------------|
d----------------------------------|
a----------------------------------|
E----------------------------------|
e----1--(1)h2--1------^^^------------------|
b-----------------4--2----1----------------|
g--1-------------------------3-----1h3--1--|
d-------------------------------3----------|
a------------------------------------------|
E------------------------------------------|
Option 2:
e-----13--(13)h14--13--11-9---^^^-11-9-^^^^|
b------------------------------------------|
g--13--------------------------------------|
d------------------------------------------|
a------------------------------------------|
E------------------------------------------|
e----13-(13)h14-13-11--9--^^^-8--------4h6-4~|
b-------------------------------11---6-------|
g-13-----------------------------------------|
d--------------------------------------------|
a--------------------------------------------|
E--------------------------------------------|
Riff1:
e------------|
b------------|
g---4h6---4~-|
d-------6----|
a-6----------|
E------------|
Riff2:
e-4^2--------|
b-----4~-----|
g------------|
d------------|
a------------|
E------------|
Riff3:
e-2-1--------|
b-----2-2/4~-|
g------------|
d------------|
a------------|
E------------|
INTRO 2:
Option 1:
e----1--(1)h2--1------^^^------------------|
b-----------------4--2----1----------------|
g--1-------------------------3-----1h3--1~-|
d-------------------------------3----------|
a------------------------------------------|
E------------------------------------------|

Option 2:
e----13-(13)h14-13-11--9--^^^-8--------4h6-4~|
b-------------------------------11---6-------|
g-13-----------------------------------------|
d--------------------------------------------|
a--------------------------------------------|
E--------------------------------------------|
Riff4:
e-------------------|
b-------------------|
g---4h6---4-4h6p4---|
d-------6---------6-|
a-6-----------------|
E-------------------|
Riff5:
e----10h13----11/9--| e--------------|
b----------14-------| b---4h6---4/2--|
g-13----------------| or g-------6------|
d-------------------| d-6------------|
a-------------------| a--------------|
E-------------------| E--------------|
Riff6:
e-----4-----4~----|
b-6-7---6/7-------|
g-----------------|
d-----------------|
a-----------------|
E-----------------|
Riff7:
e-----4h6-4~------|
b-----------------|
g-----------------|
d-----------------|
a-----------------|
E-----------------|
Bridge:
e-1h2-4h5~--5p4-2-4~--1-2-4-4-2-1----------|
b---------------------------------4-2-4/6--|
g------------------------------------------|
d------------------------------------------|
a------------------------------------------|
E------------------------------------------|

e-1h2-4h5~--5p4-2-4~-----------------------|
b---------------------2-4--6-6p4-6-7-6h4---|
g------------------------------------------|
d------------------------------------------|
a------------------------------------------|
E------------------------------------------|
say you love me too...
GUITAR 1 (WITH CAPO ON 1 FRET)
INTRO:
C Am
e-------------------------------|--------------|
b-----1-3---1---------1-3---1---|-----1-3---1--|
g---0-----0---0-----0-----0---0-|---2-----2---2|
d-------------------------------|--------------|
a-3--------------3--------------|-0------------|
E-------------------------------|--------------|
Am F
e---------------|-------------------------------|
b-----1-3---1---|-----1-3---1--------1-3----1---|
g---2-----2---2-|---2-----2---2----2------2---2-|
d---------------|-------------------------------|
a-0-------------|-------------------------------|
E---------------|-1--------------1--------------|
Am F G
e---------------|-------|------------------------|
b-----1-3---1---|-1---1-|--0-(0)-----------------|
g---2-----2---2-|---2---|--0-(0)-----------------|
d---------------|-------|------------------------|
a-0-------------|-------|------------------------|
E---------------|-1-----|--3---------------------|
VERSES :
C Am
e-------------------------------|--------------|
b-----1-3---1---------1-3-----1-|-----1-3---1--|
g---0-----0---0-----0-------0---|---2-----2---2|
d-------------------------------|--------------|
a-3--------------3--------------|-0------------|
E-------------------------------|--------------|
Am F G
e---------------|---------------|--------------|
b-----1-3-----1-|-----1-0-------|-----3-0---0--|
g---2-------2---|-2----------2--|---0-----0----|
d---------------|----3-----3---3|--------------|
a-0-------------|---------------|--------------|
E---------------|-1-------------|-3------------|
Dm G
e---------------|---------------|
b-----3-1----1--|-----1-0-------|
g---2------2----|---0-----------|
d-0-------------|---------------|
a---------------|---------------|
E---------------|-3-------------|
C Am
e-------------------------------|--------------|
b-----1-3---1---------1-3---1---|-----1-3---1--|
g---0-----0---0-----0-----0---0-|---2-----2---2|
d-------------------------------|--------------|
a-3--------------3--------------|-0------------|
E-------------------------------|--------------|
F G
e-------|-----------|
b-1---1-|--0-(0)----|
g---2---|--0-(0)----|
d-------|-----------|
a-------|-----------|
E-1-----|--3--------|
____________________________________________________________________________
INTRO: C, Am, F, Am, F, G
VERSE 1:
C
I lie awake at night
Am
See things in black and white
F G
I've only got you inside my mind
Dm G
You know you have made me blind
VERSE 2:
C (Riff1)
I lie awake and pray
Am
That you will look my way
F G
I have all this longing in my heart
Dm G (Riff 2)
I knew it right from the start
CHORUS:
F/G G C G/B
Oh my pretty pretty boy I love you
Am C/G
Like I never ever loved no one before you
F C/E
Pretty pretty boy of mine
Dm (Riff3) G7
Just tell me you love me too
F/G G C G/B
Oh my pretty pretty boy I need you
Am C/G
Oh my pretty pretty boy I do
F C/E Dm G7 C
Let me inside make me stay right beside you
INTRO 2: C, Am, F, G
VERSE 3:
C (Riff4)
I used to write your name
Am
And put it in a frame
F G
And sometimes I think I hear you call
Dm G (Riff5)
Right from my bedroom wall
VERSE 4:
C (Riff6)
You stay a little while
Am
And touch me with your smile
F G
And what can I say to make you mine
Dm G
To reach out for you in time
CHORUS:
F/G G C G/B
Oh my pretty pretty boy I love you
Am C/G
Like I never ever loved no one before you
F C/E
Pretty pretty boy of mine
Dm (Riff3)G7
Just tell me you love me too (Tell me you love me too...)
F/G G C G/B
Oh my pretty pretty boy I need you
Am C/G
Oh my pretty pretty boy I do
F
Let me inside (Let me Inside)
C/E Dm G7(Riff7) C (Strum)
make me stay (Make me Stay) right beside you
BRIDGE:
Fm(Strum) C(Strum) G(Strum) Gdim(Strum) Am(Strum X3)
Fm Em Am
Oh pretty boy, pretty boy, pretty boy
G
Say you love me too
CHORUS:
F/G G C G/B
Oh my pretty pretty boy I love you
Am C/G
Like I never ever loved no one before you
F C/E
Pretty pretty boy of mine
Dm (Riff3)G7
Just tell me you love me too (Tell me you love me too...)
F/G G C G/B
Oh my pretty pretty boy I need you
Am C/G
Oh my pretty pretty boy I do
F C/E Dm G7 C(Strum)
Let me inside make me stay uhuh right beside you
*AHORA SI, ESTE ES EL BONUS APROVECHENLO AMIGUILLOS, SI SON MEDIO DESAFINADONES
PARA CANTARLA LES PONGO UNA PEQUEСA GUIA PARA QUE VEAN LA TONADA EN LA QUE ESTA
ESTA CANCION, DISFRUTENLA*
Chorus Melody:
e--------------------------------------------------
b--------------------14p13-13-9~----9--------------
g--6-8--10-8-10-8-10-------------10---10-8-10-8-10-
d--------------------------------------------------
a--------------------------------------------------
E--------------------------------------------------
e--------------------------------------------------------
b-11p9-9------------------------7h6-6~---6-4----6-7------
g--------10p8-8p6-6~--6-5-6-5-6--------6------6-----6/8~-
d--------------------------------------------------------
a--------------------------------------------------------
E--------------------------------------------------------
e--------------------9h8-8------------------------
b--------------------------9~-----9---------------
g--6-8--10-8-10-8-10-----------10----10-8-10-8-10-
d-------------------------------------------------
a-------------------------------------------------
E-------------------------------------------------
e-------------------------------------------------
b--11h9-9~---------------6h4-4~--6h4-4-2-4h2-2~---
g-----------10-8/6-6~--6--------------------------
d-------------------------------------------------
a-------------------------------------------------
E-------------------------------------------------
PAPAYA DE CELAYA...
Esta va por violeta




Ваше мнение



Капча