Title: Love Left For Me
Artist: M2M
Album: The Big Room
Written By: Marion E. Raven
Tabbed By: Juan de Jesъs Ayala Patiсo
Chords:
G 3 2 0 0 0 3 3 2 0 0 3 3 (Only In Chorus)
G/E 0 2 0 0 0 3
Cadd9 x 3 2 0 3 0 X 3 2 0 3 3 (Only In Chorus)
G/F# 2 2 0 0 3 3
Em7 0 2 2 0 3 3
D X X 0 2 3 2 X 5 7 7 7 5
C 0 3 2 0 1 0
_____________________________________________________________________________
Tabs: Guitar 1:
INTRO:
G G/E
e|----------------|--------3--------|
B|-------0--------|------0----0---0-|
G|-----0---0----0-|----0--------0---|
D|---0-------0----|-----------------|
A|----------------|-----------------|
E|-3--------------|-0---------------|
VERSES:
G G/E
e|----------------|--------3--------|
B|-------0--------|------0----0---0-|
G|-----0---0----0-|----0--------0---|
D|---0-------0----|-----------------|
A|----------------|-----------------|
E|-3--------------|-0---------------|
Cadd9
e|--------------------------0---------|
B|--------3---------------3---3---3---|
G|------0-----0---0----0--------0-----|
D|----2---------2---------------------|
A|--3----------------3----------------|
E|------------------------------------|
G G/F# Em7
e|----------|----------|---------3--------|-12---|
B|------3---|------3---|-------3----3---3-|-12---|
G|--------0-|----------|-----0--------0---|------|
D|----0-----|----0-----|------------------|------|
A|----------|----------|------------------|------|
E|--3-------|--2-------|--0---------------|------|
SOLO:
D Em Cadd9
e|----------3-|-------2-------|--------0-------|----------------|
B|--0--1-3~---|-----3---3---3-|------0---0---0-|--------3-------|
G|----------0-|---2-------2---|----0-------0---|------0---0---0-|
D|------------|-0-------------|--2-------------|----2-------2---|
A|--0--2-3----|---------------|----------------|--3-------------|
E|------------|---------------|----------------|----------------|
D
e|------5-------|
B|------7-------|
G|----7---7---7-|
D|--7-------7---|
A|-5------------|
E|--------------|
D Em Cadd9
e|-------2-------|--------0-------|----------------|
B|-----3---3---3-|------0---0---0-|--------3-------|
G|---2-------2---|----0-------0---|------0---0---0-|
D|-0-------------|--2-------------|----2-------2---|
A|---------------|----------------|--3-------------|
E|---------------|----------------|----------------|
D
e|------5-------|
B|------7-------|
G|----7---7---7-|
D|--7-------7---|
A|-5------------|
E|--------------|
D Em Cadd9
e|-------2-------|--------0-------|----------------|
B|-----3---3---3-|------0---0---0-|--------3-------|
G|---2-------2---|----0-------0---|------0---0---0-|
D|-0-------------|--2-------------|----2-------2---|
A|---------------|----------------|--3-------------|
E|---------------|----------------|----------------|
D
e|----2h3p2-0--------|
B|-------------3-1-0-|
G|-------------------|
D|--0----------------|
A|-------------------|
E|-------------------|
_____________________________________________________________________________
Guitar 2:
Intro: (2nd time)Bass
G G/E
e|----------------|---------------|
B|----------------|---------------|
G|----------------|---------------|
D|--------------0-|---------------|
A|---------0h2----|---------------|
E|-0-3------------|-0-------------|

Verse 2: Bass
G G/E
e|----------------|---------------|
B|----------------|---------------|
G|----------------|---------------|
D|----------------|---------------|
A|----------------|---------------|
E|---3----------3-|-0-------------|
riff 0:
e|-------------|
B|-------------|
G|--0h2-0h2--2-|
D|-------------|
A|-------------|
E|-------------|
Riff 1:
e|-------------|
B|-------------|
G|-------------|
D|-0h2p0---0-2-|
A|-------2-----|
E|-------------|
Riff 2:
e|-------------|
B|-------------|
G|-------------|
D|-------------|
A|--0--0-----0-|
E|---3---2-2--0|
Solo:
e|--5--3~--2---------2--2-(2)/3--3|Do
B|------------5~--5---------------| This
G|--------------------------------| x 3
D|--------------------------------| Times
A|--------------------------------|
E|--------------------------------|

INTRO: G, G/E, G, G/E
VERSE 1:
G G/E G G/E Cadd9 G G/E
You just said the worst thing you could ever say
G G/E G G/E Cadd9 (riff 0)
Well, I don't understand why it just can't be this way
G G/F# Em7
I'm crying because of you
CHORUS:
G Cadd9 A7sus4 C
I hate, yes I hate all your liiiiiiiiees
G Cadd9 A7sus4 C
I'm so scared and I fear what I see in your eyes
G Cadd9 A7sus4 C
But, I hope and I dream and I wish and I pray
G G/F# Em7 (Riff1)
That you have some love left for me
Em7 G/F# G
Do you have some love left for me?
INTRO (2nd time): G, G/E, G, G/E (Riff 2)

VERSE 2:
G G/E G G/E Cadd9 G G/E
You just did the worst thing you could ever do to me
G G/E G G/E Cadd9
Well, I don't understand why and I cannot see
G G/F# Em7
That it's hurting because of you
CHORUS: (REPEAT)
SOLO: D, Em, Cadd9, D
D Em Cadd9 D
(Do you have some love left for me?) X2
CHORUS:
G Cadd9 A7sus4 C
I hate, (yes I hate) all your lies, all your liiiiiieeees
G Cadd9 A7sus4 C
I'm so scared and I fear what I see in your eyes(you donґt feel anything)
G Cadd9 A7sus4 C
But, I hope and I dream and I wish and I pray
G G/F# Em7 (Riff1)
That you have some love left for me
Em7 G/F# G
Do you have some love left for me?
G G/F# Em7 (Riff1)
Do you have some love left for me
Em7 G/F# G
Do you have some love left for me?




Ваше мнение



Капча