#----------------------------------PLEASE NOTE--------------------------------#
#This file is the author's own work and represents their interpretation of the#
#song. You may only use this file for private study, scholarship, or research.#
#-----------------------------------------------------------------------------#
M2M
Everything
Tabbed by Andres (www.geocities.com/clubtabz)
INTRO & VERSE
E------0-------0-------0-------0-------------
B----1-------0-------0-------0---------------
G--0-----2-------1-------1-------------------
D--------------------------------------------
A--------------------------------------------
E--------------------------------------------
Acoustic Chords for Verse and Chorus
E--0---0---0---------------------------------
B--1---3---0---------------------------------
G--0---2---1---------------------------------
D--2---0---2---------------------------------
A--3-------2---------------------------------
E----------0---------------------------------
BRIDGE
E--------------------------------------------
B--------1---------------3-------------------
G------0----0----------0----0----------------
D----2--------2------4--------4--------------
A--3------------3--5------------5------------
E--------------------------------------------
Play this twice and then:
E--------------------------------------------
B--------1-----------------------------------
G------0----0--------------------------------
D----2--------2----4-------------------------
A--3------------3--2-------------------------
E--------------------------------------------
CHORUS
E--------------------------------------------
B--------------------------------------------
G--5---7-7--9-------------------------------
D--5---7-7--9-------------------------------
A--3---5-5--7-------------------------------
E--------------------------------------------
Play this 3 times and then
E--------------------------------------------
B--------------------------------------1-----
G--------------------------------------2-----
D--9-9-9--9-9-9-9-9-9-9--6-6-6--4-4-4--2-----
A--7-7-7--6-6-6-6-6-6-6--4-4-4--2-2-2--0-----
E--------------------------------------------
Last Chorus repeats the end 3 times
Before 3rd Verse, play this Riff
E--5p3h5p3h5p3h5p3h5p3-----------------------
B--------------------------------------------
G--------------------------------------------
D--------------------------------------------
A--------------------------------------------
E--------------------------------------------
That's all!
Mail questions to [email protected]




Ваше мнение



Капча