Title: Eventually
Artist: M2M
Album: The Big Room
Tabbed by: E.J. Gemzon =====> [email protected]

This is already 99.8 % accurate....i've already make necessary
corrections in these tab.. particularly on the outro part.
INTRO & VERSES :
Am G D
e-------------|-------3-----|-------3p2----------|
b-------1-----|-------0-----|------------------3-|
g-------2-----|---------0---|----2---------------|
d----2--------|-------------|--0-----------------|
a--0-------0--|---2---------|--------------------|
E-------------|-3-----------|--------------------|

Am CM7 Em G
e--------------|------------|------------|------3-----|
b-------1------|------0-----|-------0----|------0-----|
g-------2------|------0-----|-------0----|---------0--|
d----2---------|---2--------|------------|------------|
a--0-------2---|-3--------3-|----2-------|---2--------|
E--------------|------------|--0-------0-|-3----------|
D
e---------3p2--------|
b-------3-----3------|
g-----2--------------|
d--0-----------------|
a--------------------|
E--------------------|

CHORUS :
Am G D
e-------------|------------|------3p2-----|
b-------1-----|-------0----|----3-----3---|
g-------2-----|-------0----|--2-----------|
d----2--------|------------|0-------------|
a--0-------0--|--2-------2-|--------------|
E-------------|3-----------|--------------|
Aahhh.......

Am C G
e------------|-----------|------3-----|
b------1-----|------1----|------0-----|
g------2-----|------0----|----------0-|
d----2-------|---2-------|------------|
a--0------2--|-3------3--|--2---------|
E------------|-----------|3-----------|

D Am C
e-------3p2---|----------|----------|
b-----3-----3-|-----1----|-----1----|
g---2---------|-----2----|-----0----|
d-0-----------|---2------|---2------|
a-------------|-0------2-|-3------3-|
E-------------|----------|----------|

Em G D
e-------------|-------3---|-------3p2---|
b-------0-----|-------0---|-----3-----3-|
g-------0-----|---------0-|---2---------|
d-------------|-----------|-0-----------|
a---2---------|---2-------|-------------|
E-0---------0-|-3---------|-------------|

G G/F# Em7
e-----------|------------|
b------0----|------0-----|
g------0----|------0--0--|
d---0-------|---------0--|
a--------2--|---2-----2--|
E-3---------|-2----------|
Ev..e..n..tually
Outro :

Am7 Asus/B Am7 Asus/B
e----0--|----0----|----0-|-----0--|
b-1-----|-3-------|-1----|-3------|
g-------|------0--|------|--------|
d-------|---------|------|--------|
a-0-----|-2-------|-0----|-2------|
E-------|---------|------|--------|
/ , = slide
h = hammer
p = pull off

Here are some licks done by the second
guitar on the outro part. Listen to the CD and follow.
*put a capo on 4th fret if U want

sl.
e--7/9--9-9-------|
b-----------------|
g-----------------|
d-----------------|
a-----------------|
E-----------------|
sl. sl. sl.
e--7/97--------4---------------------------------------|
b--7/97--4-4h5----4-4h5p4------------------------------|
g---------4-4---------------6--6/8-4--6-6/8--6h8p6-4-4--|
d-------------------------------------------------------|
a-------------------------------------------------------|
E-------------------------------------------------------|

sl.
e-----7-9--11--12--14--14~---14--12-11--7-7-----|
b-7-9--------------------------------------------|
g------------------------------------------------|
d------------------------------------------------|
a------------------------------------------------|
E------------------------------------------------|

e-------4--7--7-------|
b--4h5----------------|
g-------------4-------|
d---------------------|
a---------------------|
E---------------------|
.. hehe ... ^_^ .. i can bet my life for this tab ^_^




Ваше мнение



Капча