Title: Donґt Mess With My Love (Acoustic Version)
Artist: M2M
Album: Shades Of Purple
Written By: Marion E. Raven/ Marit E. Larsen/Guy Roche/Shelly Peiken
Tabbed By: Juan De Jesъs Ayala Patiсo
CHORDS:
E 0 2 2 1 0 0 X X 2 4 5 4
Am9 0 0 2 2 0 0 X 0 2 4 5 5
F#msus4 2 X 2 2 0 0 X X 4 4 5 5
C#m7 X 4 6 6 0 0
Bsus4 X 2 4 4 0 0
D9/6 X 5 7 7 0 0
Aadd9 5 7 7 6 0 0
G# 4 6 6 5 4 4
INTRO: cd
E
F |--------2h5---|
C |------5-------|
G#|----4---------|
D#|--2-----------|
A#|--------------|
F |--------------|

TABS:
BRIDGE
C#m7 D9/6 Aadd9
e|------0-------0---|------0-------0---|-----0-------0---
B|----0---0---0---0-|----0---0---0---0-|---0---0---0---0-
G|--6-------6-------|--7-------7-------|-6-------6-------
D|------------------|------------------|-----------------
A|------------------|------------------|-----------------
E|------------------|------------------|-----------------
G# C#m7 D9/6
e|------4-------4---|------0-------0---|-----0-------0---
B|----4---4---4---4-|----0---0---0---0-|---0---0---0---0-
G|--5-------5-------|--6-------6-------|-7-------7-------
D|------------------|------------------|-----------------
A|------------------|------------------|-----------------
E|------------------|------------------|-----------------
Aadd9 G# C#m7
e|------0-------0---|------4-------4---|-----0-------0---
B|----0---0---0---0-|----4---4---4---4-|---0---0---0---0-
G|--6-------6-------|--5-------5-------|-6-------6-------
D|------------------|------------------|-----------------
A|------------------|------------------|-----------------
E|------------------|------------------|-----------------
Bsus4
e|------0-----------|
B|----0---0---------|
G|--4-------4-(4)---|
D|------------------|
A|------------------|
E|------------------|
INTRO: E, Am9, Bsus4, Am9, Bsus4
VERSE 1:
Am9 (strum) Bsus4(strum) Am9 (strum)
I thought you were a friend of mine but I was wrong
E (strum)
You tried to fit into the arms where I belong
Am9 Bsus4 C#m7
You moved right in behind my back
D9/6 Bsus4
Everyone knows friends don't do that
VERSE 2:
Am9 Bsus4 Am9
I thought you were somebody I could trust
E Am9
You always said you were happy for us
Bsus4 C#m7
How could you go and break my heart
D Bsus4
When you knew all along he was mine from the start.
CHORUS:
E
He is everything to me
Am9
And you know we're meant to be
F#msus4 Bsus4
He's my baby, don't mess with my love
E
Take everything I own
Am9
Ooh, just leave that boy alone
F#msus4 Bsus4 E Am9 Bsus4
He's my baby, don't mess with my, mess with my love
E Am9 Bsus4
Don't mess with my love
VERSE 3:
Am9 Bsus4 Am9
You came right over and looked in my eyes
E Am9
You said the stories were rumors and lies
Bsus4 C#m7
I wish I could believe in you
D9/6 Bsus4
But I'm sorry to say, he told me the truth
CHORUS:
E
He is everything to me
Am9
And you know we're meant to be
F#msus4 Bsus4
He's my baby, don't mess with my love
E
Take everything I own
Am9
Ooh, just leave that boy alone
F#msus4 Bsus4 E Am9 Bsus4
He's my baby, don't mess with my, mess with my love
E Am9 Bsus4
Don't mess with my love
BRIDGE:
C#m7 D9/6 Aadd9
Friends don't do what you do
G# C#m7
There's no excuse, I'm so confused
D9/6
I thought you cared about me
Aadd9 G# C#m7 Bsus4
But now I see, all you care 'bout is you
CHORUS:
E
He is everything to me
Am9
And you know we're meant to be
F#msus4 Bsus4
He's my baby, don't mess with my love
E Am9
Ooh Take everything I own
F#msus4
Ooh, just leave that boy alone
Bsus4 E Am9 F#msus4 Bsus4(Until Fade)
He's my baby, don't mess with my, mess with my love




Ваше мнение



Капча