Title: The Day You Went Away
Artist: M2M
Album: Shades of Purple
Chords: Bm x24432 D xx0232
A x02220 D/C# x40232
G 320001 Bm/A x04432
F#m 244222
Intro 1:
Bm A
e-----------0-------|-------------------|
b--3------------3---|--2--------3---2---|
g------4------0-----|------2------------|
d----4------------4-|----2--------4---2-|
a---------2---------|--------0----------|
e-------------------|-------------------|
G F#m
e------------------|-----------------|
b--0-------0-------|--2----0---------|
g------0-------0---|----------3------|
d----0-------0-----|----2--0--4------|
a--------2-------2-|-----------------|
e------------------|-----------------|
Intro 2:
Bm A
e-----------0-------|-------------------|
b--3------------3---|--2--------3---2---|
g------4------------|------2------------|
d-------------------|-------------------|
a-------------------|-------------------|
e-------------------|-------------------|
G F#m
e------------------|-----------------|
b--0-------0-------|--2----0---------|
g------0-------0---|----------3------|
d------------------|-----------------|
a------------------|-----------------|
e------------------|-----------------|
Intro 1
Intro 2
Verse: Same as intro 2
Bm A
Well I wonder could it be
G
When I was dreaming 'bout you baby
F#m
You were dreaming of me
Bm A
Call me crazy call me blind
G
To still be suffering is stupid
F#m
After all of this time
Pre Chorus: |D A |Bm A |G Bm |F#m A |
D A
Did I lose my love to someone better
Bm A G
And does she love you like I do
Bm F#m A
I do, you know I really, really do
Chorus: |D D/C#|Bm Bm/A|G |D |
|D D/C#|Bm Bm/A|G |Bm |
D
Well hey
D/C# Bm
So much I need to say
Bm/A G
Been lonely since the day
D
The day you went away
D
So sad but true
D/C# Bm
For me there's only you
Bm/A G
Been crying since the day
Bm
The day you went away
Intro 2
Bm A
I remember date and time
G
September twenty second
F#m
Sunday, twenty-five after nine
Bm A
In the doorway with your case
G
No longer shouting at each other
F#m
There were tears on our faces
D A
And we were letting go of something special
Bm A G
Something we'll never have again
Bm F#m A
I know, I guess I really, really know
Chorus
G
The day you went away
Bm
The day you went away
Intro 1
Pre Chorus 1
Chorus
Bridge: Same as Chorus
D D/C# Bm
Why do we never know what we've got 'til it's gone
Bm/A G
How could I carry on
D
The day you went away
D D/C# Bm
Cos I've been missing you so much I have to say
Bm/A G
Been crying since the day
Bm
The day you went away
G
The day you went away
Bm
The day you went away
Intro 1




Ваше мнение



Капча