-------------------------------------------------------------------------------
wild thing - lynyrd skynyrd
-------------------------------------------------------------------------------

Tabbed by:Brandon
Email:[email protected]

Chords: first is AM the D then EM u should no the fingers used.

e|----0---0------2-2-------0---0------2-2--------------------------------------|
B|----2---2------3-3-------0---0------3-3--------------------------------------|
G|----2---2------2-2-------0---0------2-2--------------------------------------|
D|----2---2------0-0-------2---2------0-0--------------------------------------|
A|----0---0----------------2---2-----------------------------------------------|
E|-------------------------0---0-----------------------------------------------|

Thats pretty much the main part of the song so o well.




Ваше мнение



Капча