E-------------------------------|
B-------------------------------|
G-7-7---5-5---0--2--4--5--7-----| Reapet
D-7-7---5-5---0--2--4--5--7-----|
A-5-5---3-3------0--2--3--5-----|
E-------------------------------|
Guitar solo:
E----------------------------------------------------------------------------|
B-13--13--13---10---13--10-----12---------12------------------------15-15-15-|
G-12^-12^-12^--10---12--10--------10---------10-----12--10-12/14--14---------|
D-----------------9---------9--------12---------12---------------------------|
A----------------------------------------------------------------------------|
E----------------------------------------------------------------------------|
E---------------------------------------------------------------------------|
B-13-15-18--20^-18-20----20^--18---------------------------------13---------|
G---------------------19---------19--------------------14-14--16------------|
D-----------------------------------12-14-12----14--16----------------------|
A--------------------------------------------14-----------------------------|
E---------------------------------------------------------------------------|
I think thats right have fun!




Ваше мнение



Капча