#----------------------------------PLEASE NOTE---------------------------------#
#This file is the author's own work and represents their interpretation of the #
#song. You may only use this file for private study, scholarship, or research. #
#------------------------------------------------------------------------------##
From: [email protected] (Kevin Bills)
Was I Right or Wrong?
by Lynyrd Skynyrd
written by Gary Rossington and Ronny Van Zant
transcribed by Kevin Bills
([email protected])



intro and verse riff
E-|-----|---------------------1-----------------------------------------------|
B-|-----|---3-----3-----3~1-----1---------------------3-----3-----------------|
G-|-5-7-|-----2-----2-------------0-----0-----0---------2-----2-----0---------|
D-|-5-7-|-0-----0-----0-------------------0---------0-----0-----0-----0-------|
A-|-3-5-|-------------------3-------3-----------0-2---------------------------|
E-|-----|-----------------------------3-----3---------------------3-----3-----|


E-|---------------------------------------------------------------------------|
B-|---------------8---6---3-----3-----3~1---1-----1-3-------------------------|
G-|-0-------2---------------2-----2-----------0-------------------------------|
D-|---0-------2-----------0---0-----0---------------0-------------------------|
A-|-------0-----0---0---0-----------------3-----3-3---------------------------|
E-|-----3---------------------------------------------------------------------|

Like a restless leave
in the autumn breeze
once, i was a tumbleweed
Like a rollin stone
cold and all alone
living for the day my dream would come
I never cared for school
Or any golden rule
and Papa used to alway say I was a useless fool
So I left my home
to show 'em they was wrong
and headed out on the road signin my song
Then one sunny day
the man he looked my way
and everything that I dreamed of it was real
Money, girls and cars
big long cigars
and i caught the first plane home so papa could see

refrain riff:
E-|---------------------------------------------------------------------------|
B-|---------------------------------------------------------------------------|
G-|-7-7-7--7-7-7--7/12-12--7-7-7-7/12-12-12-12/14-14-12-12--7-7-7---------|
D-|-7-7-7--7-7-7--7/12-12--7-7-7-7/12-12-12-12/14-14-12-12--7x7-7---------|
A-|---------------------------------------------------------------------------|
E-|---------------------------------------------------------------------------|


E-|---------------------------------------------------------------------------|
B-|---------------------------------------------------------------------------|
G-|-75-75-75---------------------------------------------------------------|
D-|-75-75-75---------------------------------------------------------------|
A-|---------------------------------------------------------------------------|
E-|---------------------------------------------------------------------------|


When I went home
to show em they was wrong
all that i found was his to-tombstone
somebody tell me please was i right or wrong
first i got lost then i got found,
but the ones that i loved are in the ground
papa I only wish you could see me now
take a listen papa:
E-|---------------------------------------------------------------------------|
B-|---------------------------------------------------------------------------|
G-|-7-7---7-7---7---7-7-10-9-7------------------------------------------------|
D-|-7-7---7-7---7---7-7-10-9-7---5-5---5--------------------------------------|
A-|-----9-----9---9--------------5-5---5-7^-5~~---5-5-7^-5--------------------|
E-|----------------------------------7----------7----------7------------------|


E-|---------------------------------------------------------------------------|
B-|---------------------------------------------------------------------------|
G-|-10-9-7-10-9-7-10-9-7-10-9-7-10-9-7----------------------------------------|
D-|-10-9-7-10-9-7-10-9-7-10-9-7-10-9-7-7-7------------------------------------|
A-|------------------------------------7-7---7-9-7-----7-9-7------------------|
E-|----------------------------------------9-------7-9-------9-7--------------|


E-|---------------------------------------------------------------------------|
B-|---------------------------------------------------------------------------|
G-|-7-7---7-7---7---7-7-10-9-7------------------------------------------------|
D-|-7-7---7-7---7---7-7-10-9-7-5-5--------------------------------------------|
A-|-----9-----9---9------------5-5---5-7^-5---5-5-7^-5------------------------|
E-|--------------------------------7--------7----------7----------------------|


E-|---------------------------------------------------------------------------|
B-|---------------------------------------------------------------------------|
G-|-7-7---7-7-----------------7-7---7-7---7---7-7-7--10-9-7-------------------|
D-|-7-7---7-7---7-7---7-------7-7---7-7---7---7-7-7--10-9-7-------------------|
A-|-----9-----9-7-7---7-9-7-------9-----9---9---------------------------------|
E-|-----------------9-------9-------------------------------------------------|


E-|-17~-15-----------------------------15-17----------------------------------|
B-|--------15-17----15----15-17-18-19-------18^------------------------------|
G-|--------------15-----------------------------15-18^-18^--------------------|
D-|---------------------------------------------------------------------------|
A-|---------------------------------------------------------------------------|
E-|---------------------------------------------------------------------------|


E-|-----------17~-15-----------------------------------------------------17-17|
B-|-18^17^15---------15-17----15--15----15-17/1817-15-17~~~-17-15-17/19------|
G-|------------------------15--------17---------------------------------------|
D-|---------------------------------------------------------------------------|
A-|---------------------------------------------------------------------------|
E-|---------------------------------------------------------------------------|


E-|------------------------------------------------------19-17-19-17-15-------|
B-|-1917-15--15-15----15-17--17^-15-17-15-15-----15-17----------------17-15-|
G-|-----------------17-------------------------/15----------------------------|
D-|---------------------------------------------------------------------------|
A-|---------------------------------------------------------------------------|
E-|---------------------------------------------------------------------------|


E-|-----------------------15-17-----------------------------------------------|
B-|-15----15-------15-17~-------17~-15-17-------15-17^18^17-15-15----15-17---|
G-|----17----15-17------------------------15-17-------------------17----------|
D-|---------------------------------------------------------------------------|
A-|---------------------------------------------------------------------------|
E-|---------------------------------------------------------------------------|


E-|---------------------------------------------------------------------------|
B-|---------------------------------------------------------------------------|
G-|-7-7-7-10-9-7---return-to-verse-rhythym-------------------------------------|
D-|-7-7-7-10-9-7--------------------------------------------------------------|
A-|---------------------------------------------------------------------------|
E-|---------------------------------------------------------------------------|

If there's any way
that you could hear what I say
papa I never mean to be alone
all the money, girls and cars
and all the world's long cigars
papa i just want you to know they couldn't take your place
When I went home
to show em they was wrong
all that i found was his to-tombstone
somebody tell me please was i right or wrong
first i got lost then i got found,
but the ones that i loved are in the ground
papa I only wish you could see me now
E-|---------------------------------------------------------------------------|
B-|---------------------------------------------------------------------------|
G-|-5-7-----2-5-7----5-7------------------------------------------------------|
D-|-5-7-----2-5-7----5-7------------------------------------------------------|
A-|-3-5-----0-3-5----3-5------------------------------------------------------|
E-|---------------------------------------------------------------------------|




Ваше мнение



Капча