**************************
Things Goin' On
Lynyrd Skynyrd
**************************
Tabbed by:Steven Bryant (elix997)
E-Mail:[email protected]
Tab Legend
h-hammer on
p-pull off
^-bend half step
/-slide up
x-dead note
-harmonic
~-vibrato
(0)-approximate note to slide up to
(Note:On the half step bends on the 5th fret of the D string, you can either do that or
whole step bend on the 4th fret. The acoustic version is the 5th fret bend, the electric
is the 4th fret bend.)
e------------------------------------------------------------------|
B-----------------x----------------x-------------x---------------------|
G-----------------x----------------x-------------x-------4--2--4--7--7-|
D----2-5^--2---2--x----2/(14)------x----2-5^-2-2-x----2----------------|
A-2h4--------4----x-2h4------------x-2h4------4--x-2h4--2--2--2--0--0--|
E----------------------------------------------------------------------|
e----------------------------------------------------------------------|
B---------x------------------------------------------------------------|
G---------x-------2--0--2--5--7----------------------------------------|
D--5^-2-2-x----2------------------5^-2---2-0--------------2~-----------|
A------4--x-2h4-0--0--0--0--0----------4-----2---------2h4-------------|
E-0-----------------------------0--------------3-0--/4-----------------|
questions or comments?
hit me up
[email protected]
Please Rate!
Thanks




Ваше мнение



Капча