That Smell - Lynyrd Skynyrd
Intro
G|------|
D|------|
A|------|
E|-131-|

(x4)
G|-------------------------| G|-R---14-12-14-12-----|
D|-------------------2-----| D|------------------14-|
A|---0-3-0---0-0-2-3---3-2-| A|---------------------|
E|-1-------3---------------| E|---------------------|
Verse/Chorus/second guitar solo:
G|-------------------------|
D|-------------------2-----|
A|---0-3-0---0-0-2-3---3-2-|
E|-1-------3---------------|

First Solo
h
G|-12-14-12-14-12-14-12-14-12-------------------------------------------------
D|----------------------------14--------------------2-0-2-3-2-0---------0-2-3-
A|----------------------------------0-3-0---0-0-2-3-------------3-0-2-3-------
E|--------------------------------1-------3-----------------------------------
G-----5-4---------------------------------|
D-5-7-----7-----7-5-3-2-0-----------------|
A-----------5-7-----------3-0-------------|
E-----------------------------3/5-53-31-|

Slow Change
(x4)
G|--------------------|
D|----3--------7------|
A|------3--------7----| then play guitar solo intro
E|-1------3-5-------5-|

Change in guitar solo
(x2)
G|---------------------------------------|
D|-------5-------------------------------|
A|-3-5/7-----1-1-------------------------|
E|---------3-----1-1-5-5-3-5-5-3-5-5-3-5-| CONTINUE GUITAR SOLO>same as verse
OUTRO>same as the change in the guitar solo
Tabbed by Frankman




Ваше мнение



Капча