-----------------------------------------------------------------------
T for Texas T – Lynyrd Skynyrd
-----------------------------------------------------------------------
Tabbed by:Skynyrd1515

Tuning:EADGBe

e|--------------------------------------------------------------------
B|--------------------------------------------------------------------
G|---------2---------2---------2---------2----------7-----7^^^p5------
D|-----2-4-------2-4-------2-4-------2-4--------7-9-------------------
A|-0-4-------0-4-------0-4-------0-4--------5-9-------5-9-------------
E|--------------------------------------------------------------------

e|--------------------------------------------------------------------|
B|--------------------------------------------------------------------|
G|---------2---------2-------------------7---------2--------4-4p6-----|
D|-----2-4-------2-4-----------2-----7-9-------2-4--------2--------h4-|
A|-0-4-------0-4-----------2-4---5-9-------0-4--------0-4-------------|
E|---------------------0-4--------------------------------------------|

e|---------------------------------------------------------------------
B|---------------------------------------------------------------------
G|---------2---------2----------2---------2---------7---------7--------
D|-----2-4-------2-4--------2-4-------2-4-------7-9-------7-9----------
A|-0-4-------0-4--------0-4-------0-4-------5-9-------5-9--------------
E|---------------------------------------------------------------------

e|--------------------------------------------------------------------|
B|--------------------------------------------------------------------|
G|---------2---------2-------------------7---------2---------2--------|
D|-----2-4-------2-4-----------2-----7-9-------2-4-------2-4----------|
A|-0-4-------0-4-----------2-4---5-9-------0-4-------0-4--------------|
E|---------------------0-4--------------------------------------------|

Sry..i don’t have the solo’s ..but I think that’s pretty good
considering I'm only 15!

| / slide up
| slide down
| h hammer-on
| p pull-off
| ~ vibrato
| + harmonic
| x Mute note
=======================================================================




Ваше мнение



Капча