Sweet Home Alabama
(First Solo)
E|--15--(17)--15--15--14----------10--10--10--10------8----------|
B|------------------------15--10------------------10-----11--10--|
G|---------------------------------------------------------------|
D|---------------------------------------------------------------|
A|---------------------------------------------------------------|
E|---------------------------------------------------------------|
BU BD Vib Vib

E|-----------------------------------------3--5--3--5--7---------|
B|--8--10-----8--8--10-----10--(11)--3--5-----------------3--5---|
G|---------9------------9----------------------------------------|
D|---------------------------------------------------------------|
A|---------------------------------------------------------------|
E|---------------------------------------------------------------|
BU Sl BU

E|---3--5----3--5-(6)-5--3--3-5-(7)-5--3-3------3----------------|
B|-----------------------------------------5-3-----3-------------|
G|---------------------------------------------------4-5-4-------|
D|---------------------------------------------------------5-4---|
A|-------------------------------------------------------------5v|
E|---------------------------------------------------------------|
BU BD Sl Sl H Po TremBD

(Second Solo)
E|---------------------------------------------------------------|
B|---------------------------------------------------------------|
G|---------------------------------------------------------------|
D|--------5-----5--7--(8)-(8)-(8)-(8)-(9)-(8)--7--(9)--7--(9)---5|
A|--5--7-----7---------------------------------------------------|
E|---------------------------------------------------------------|
H BU BU BD BU BD BU

E|---------------------------------------------------------------|
B|-----------------------------8----8--10--11-(12)-(13)-(14)-----|
G|----------------------7-/-9-----9------------------------------|
D|--5-----5---5---5--5-------------------------------------------|
A|-----7---------------------------------------------------------|
E|---------------------------------------------------------------|
TremBD Sl BU BU

E|--------------------------------------------------------------|
B|--8-----8-----------------------------------------------------|
G|-----9-----9--7--7--7--7--X--7----------9--7-----9---12--9----|
D|----------------------------------9--9--------9---------------|
A|--------------------------------------------------------------|
E|--------------------------------------------------------------|
Sl Vib Vib Sl

E|--------------------------------------------------------------|
B|--------------------------------------------------------------|
G|--12--14--12--9---12--17--12--9---12--17--12--9---12--16--12--|
D|--------------------------------------------------------------|
A|--------------------------------------------------------------|
E|--------------------------------------------------------------|
Po Po Po Po

E|--------------------------------------------------------------|
B|--------------------------------------------------------------|
G|-9--12--16--12-9----12--17--12--9---12--17--12--9--12--17--12-|
D|--------------------------------------------------------------|
A|--------------------------------------------------------------|
E|--------------------------------------------------------------|
Po Po Po Po

E|--------------------------------------------------------------|
B|--------------------------------------------------------------|
G|--9-12--17--12---9--12--14--12---9--12--14--12--9--12--17--12-|
D|--------------------------------------------------------------|
A|--------------------------------------------------------------|
E|--------------------------------------------------------------|
Po Po Po Po

E|--------------------------------------------------------------|
B|--------------------------------------------------------------|
G|---9--12--17--12---9--12--17--12---9--12---9------------12----|
D|-----------------------------------------------8---9----------|
A|--------------------------------------------------------------|
E|--------------------------------------------------------------|
Po Po H

E|----------------------------------------------12------12--15--|
B|------------------------------12------12--15------15----------|
G|--------------12------12--14------14--------------------------|
D|--14--12--14------14------------------------------------------|
A|--------------------------------------------------------------|
E|--------------------------------------------------------------|
Sl Sl H H H

E|--15--15--15--15--15--15--15--15--15--15--15--15--15--15--15--|
B|--------------------------------------------------------------|
G|--------------------------------------------------------------|
D|--------------------------------------------------------------|
A|--------------------------------------------------------------|
E|--------------------------------------------------------------|
Vib ~~~~~~~~~~~~~~~~~~~~~~~~~~~~~~~~~~~~~~~~~~~~~~~~~~~~~~~

E|--15--15--13--12------12-----------12-----------12------------|
B|------------------15------15-(17)------15-(17)------15-(17)---|
G|--------------------------------------------------------------|
D|--------------------------------------------------------------|
A|--------------------------------------------------------------|
E|--------------------------------------------------------------|
Vib~~~~ BU BU BU

E|--12-----------12-----------12-----------12-------------------|
B|------15-(17)-------------------15-(17)------15--12------12---|
G|-------------------14-(16)---------------------------15-------|
D|--------------------------------------------------------------|
A|--------------------------------------------------------------|
E|--------------------------------------------------------------|
BU BU BU Po

E|--------------------------------------------------------------|
B|--------------------------------------------------------------|
G|--15--14--12--------------------------------------------------|
D|--------------14--12------------------------------------------|
A|----------------------14--12--10--10--12------10--12--12--14--|
E|------------------------------------------12------------------|
Po Sl H

E|--------------------------------------------------------------|
B|--------------------------------------------------------------|
G|--------------------------------------------------------------|
D|-------------------------------------(12)--14------12--12--14-|
A|------10--10--10--12------10--12--14-----------14-------------|
E|--12------------------12--------------------------------------|
Sl H

E|--------------------------------------------------------------|
B|----------------------------------15--15------15--------------|
G|--12------12--14------12--14--16----------16------16--14--16--|
D|------14----------14------------------------------------------|
A|--------------------------------------------------------------|
E|--------------------------------------------------------------|
Sl Harm Sl Sl

E|----------15--17-(19)--17-(19)--17--(19)--17--15------15------|
B|--15--17------------------------------------------17----------|
G|--------------------------------------------------------------|
D|--------------------------------------------------------------|
A|--------------------------------------------------------------|
E|--------------------------------------------------------------|
BU BU BU BD

E|--------------------------------------------------------------|
B|--17--15--12------12------------------------------------------|
G|--------------15------15--14--12--14------12------------------|
D|--------------------------------------12----------------------|
A|--------------------------------------------------------------|
E|--------------------------------------------------------------|
Po Vib~~~~~~~~~~~

BU - Bend Up
BD - Bend Down
Sl - Slide
TremBD - Tremelo Bend Down
Vib - Vibrato
Harm - Harmonic
I think it's not perfect but... it sounds good
if you have any suggestion please write me at [email protected]
thanks
by an italian guy called marco




Ваше мнение



Капча