INTRO
This is a s close as you can get but you have to put in the pulloffs and bends. if you are really desperate then buy the book, oh that's wrong too.
snoopy

E|--------------------------------------------------|
B|--------3-----------------3-----------------------|
G|-----------2-----------------0---------------0----|
D|--0--0----------0--------------0------------------|
A|-----------------3-0-3----------------------------|
E|-----------------------------------3-0-3----------|

E|--------------------------------------------------|
B|--------------------------------3-----------------|
G|0-------------------2--0-----------2--------------|
D|--------0--2--0-----------0--0---------0----------|
A|--0--2-----------2-----------------------3-0-3----|
E|--------------------------------------------------|

E|-------------------------------------------------|
B|---3---------------------------------------------|
G|------0-------------0---0-2--0--0--4--0--0---5/7-|
D|---------0---------------------------------------|
A|-------------------------------------------------|
E|------------3-0-3--------------------------------|
E|--------------------------------------------------|
B|--------3-----------------3-----------------------|
G|-----------2-----------------0---------------0----|
D|--0--0--------0-----------------0-----------------|
A|-----------------3-0-3----------------------------|
E|-----------------------------------3-0-3----------|

E|--------------------------------------------------|
B|--------------------------------3-----------------|
G|0-------------------2--0-----------2--------------|
D|--------0--2--0-----------0--0---------0----------|
A|--0--2-----------2-----------------------3-0-3----|
E|--------------------------------------------------|

E|-------------------------------------------------|
B|---3---------------------------------------------|
G|------0---------------0---------------0----------|
D|---------0-----------------------0---------------|
A|--------------------------0--2-------------------|
E|------------3-0-3--------------------------------|

tricky bit at end of first verse
E|-----------------------------------------------------|
B|-----------------------------------------------------|
G|-----------7-7-------------5-5---------------0---12--|
D|-----------7---------------5-5-------------0-0-0-12--|
A|--7--8--9-------9/-7/-5\-7----7-/---0--2-------------|
E|-----------------------------------------------------|
Harm. B




Ваше мнение



Капча