Saturday Night Special
---by: Lynyrd Skynyrd
transcribed by: Denes Veres
Key:
h = hammer on
/ = slide
~ = sustain
[]= 1st ending
Intro 2x
e|--------------------------------|--------------[--------0~~~-----]|
B|--------------------------------|--------------[--------0~~~-----]|
G|-----------7--------------------|-----------7--[-----------------]|
D|---9h7--9--7---9--------7/9-----|---9h7--9--7--[-9---------------]|
A|---9h7--9------9--0~~---7/9-----|---9h7--9-----[-9---------------]|
E|--------------------------------|--------------[-----------------]|
2nd time play this
{--------------}
{------------0-}
{-------7----9-}
{--7----7----9-}
{--7----5----7-}
{------------0-}
verse
repeat throught song
|--------------------------|
|--------------------------|
|--------------------------|
|--------------------------|
|---7/9--129--129--7/9---|
|---5/7--107--107--5/7---|
Listen to the song for the timing




Ваше мнение



Капча