e: Tue, 7 Apr 1998 00:45:00 EDT
From: VanLoydUsh
Subject: TAB: ON THE HUNT by LYNYRD SKYNYRD
ON THE HUNT
Lynryd Skynyrd
Off the Album GOLD & PLATINUM
Transcribed by
[email protected] (Brian N.)
intro
---------------------------------------------------------------------------
----------------------------------------------------------------------------
----------------------------------------------------------------------------
---4--------0---4---0---------------------------------4-------0--4--0-------
---2----2---------------4---0-----------------2-------2----2-----------4---0
-------------------------------------3^--^-----0----------------------------
Verse
Play intro riff 4 Times
Chorus
---------------------------------------------------------------------------
---------------------------------------------------------------------------
---------------------------------------------------------------------------
-----------------4------------7-----------2---2-2-2-2-2-----------4-------7
---2-------------2------------5-----------0---0-0-0-0-0----2------2-------5
---0-----------------------------------------------------------0-----------
-------------------
-------------------
------------------- REPEAT
---2----4---------
---0----2---------
------------3^----
Intro riff
2 Times
2nd Verse
Intro riff 4 Times
Chorus
Intro riff
2 Times
Under solo
-------------------------------------------------------------------------
-------------------------------------------------------------------------
-------------------------------------------------------------------------
---4--4--4-------4-------7--- 2--2---------------------------------------
---2--2--2---0---2-------5----0--0--------2-------5--5--5-----7--7--7----
---------------------------------------------0---3--3--3-----5--5--5----
3rd Verse
Intro riff 4 Times
Chorus
Outro Riff
------------------------------------------------------------------------
------------------------------------------------------------------------
------------------------------------------------------------------------
--------------------4-----4--4------7-----7--7--------2-----2--2--------
---2-----2--2-------2----2--2-------5-----5--5--------0-----0--0--------
---0-----0--0-----------------------------------------------------------




Ваше мнение



Капча