Junkie - Lynyrd Skynyrd

Tabbed By : Jimbo ([email protected])
Tuning: Standard (EADG)

Intro (2x)
G|-------------|-----------------------------------|
D|----REST-----|----------------------0-2p0--------|
A|-6-MEASURES--|----------------2-0-2-------2p0----|
E|-------------|-0-0-00-3-0-3-0-----------------3--|

Verse (6x)
G|-------7-----------|
D|----5~---9p7-9/12--|
A|-7~----------------|
E|-------------------|

Chorus (4x)
G|----------------------7--|
D|--------5---5---9-7-9----|
A|-7-7-77---7---7----------|
E|-------------------------|

Verse (6x)
G|-------7-----------|
D|----5~---9p7-9/12--|
A|-7~----------------|
E|-------------------|

Chorus (4x)
G|----------------------7--|
D|--------5---5---9-7-9----|
A|-7-7-77---7---7----------|
E|-------------------------|

Solo (10x)
G|----------------------|
D|-----------5---7---5--|
A|-7-7-7-7-7---7---7----|
E|----------------------|

Riff after Solo (5x)
G|-9-7------------------|
D|-----9-8p7-5----------|
A|-------------7-7------|
E|----------------------|

Chorus Riff (4x)
G|----------------------7--|
D|--------5---5---9-7-9----|
A|-7-7-77---7---7----------|
E|-------------------------|

Verse (6x)
G|-------7-----------|
D|----5~---9p7-9/12--|
A|-7~----------------|
E|-------------------|

Chorus (4x)
G|----------------------7--|
D|--------5---5---9-7-9----|
A|-7-7-77---7---7----------|
E|-------------------------|

Outro (1x)
G|-7/9-7/9~----------|
D|----------9-8-7-5--|
A|-------------------|
E|-------------------|




Ваше мнение



Капча