x=muted string
h=hammer on
/=slide
b=bend
gimme back my bullets


intro
----------------------------------------------------------
--x-x-x----------------x-x-x-----------------x-x-x-x------
--x-x-x-----------5----x-x-x-------------5---x-x-x-x------
--x-x-x-----------5----x-x-x-------------5----------------
------------0-----3h0----------0-----0---3h0--------------
--------0h3---3h0------------3---0h3---3------------------


life is so...
-----------------------------------------------
--------------------x-x--------x-x-------------
-------2-x-x-----5--x-x------7-x-x-------------
----2----x-x---5-----------7-------------------
-0-----------3-----------5---------------------
-----------------------------------------------

well i`ve seen....
---------------------------------------------------------
------------x-x------------------------------------------
----2---0-2-x-x------5---5-5----------0---0----2---------
---------------------5---5-5---5------0-x-0----2---------
-0---------------3-----3---------------------0-----3h0---
----------------------------------3--------------------3-

and i`ve got...
------------------------------------------------
------------------1-----1-----------------------
----2--x--2--x----0-----0------0----0-----------
----2--x--2--x-----------------0--x-0-----------
-0-------------3------x-------------------------
----------------------------3-------------------

gimme back my...
CHORUS
----------------------------------------------
---------------x-x-x----------------3---------
-----------5---x-x-x--------------------------
-----------5------------------------0---------
-----0-----3h0---------0------0---------------
0h3-----3------------3----0h3----3------------

put em` back..
-----------------------------------------------------
-----------------------------------------------------
----2------------------------------------------------
------0------0---------------------------------------
----------3-----3-0----0----0-------0--3-0----0------
--------------------3-----3----0h3----------3----3-0-

(A5) (C5) (G5)
ain`t fool-in round cause ...
(D5) (C5) (G5) (A5)
ain`t gonna see no ...

[CHORUS]

oh put em` back ...
------------------------------------------------
--------------------------5--------3-------------
---7b!!!7-5--------------------------------------
------------7----7---/5------/4-----------------
-------------------------------------------------
-------------------------------------------------

guitar solo.. ~~~
--------------------------------------------------------
--------------------------------------------------------
--7B---7B---7B--5--7--5---------------------------------
-------------------------7----5-------------------------
--------------------------------7-5----5h3----------3-5-
-------------------------------------------5h3-5-5------

this song played 1/2 down step on original skynyrd album

well theres most of it ~BAmBAm~




Ваше мнение



Капча