It took me about three months to find this song on another site, so i decided to give it to this
one as well....hope you enjoy....any questions or comments email: [email protected]
INTRO/VERSE CHORDS: G D Em F E D
INTRO:
E----------------------------------------------------------------------------------------------|
B--3/8--7/8--7---8-8/7/5--3/5--5/4-----------6-6-6/5-------------------------------------------|
G------------------------------------4--4/5-----------5--------7-7/5/7--/19/18----18/19-18/19--|
D--------------------------------------------------------5-5/7-----------------18--------------|
A----------------------------------------------------------------------------------------------|
E----------------------------------------------------------------------------------------------|
Repeat but watch for a change with the..................--4-5--7/5/7--
here
E-----------------------------------------------------------------------------------------------|
B--3/8--7/8--7---8-8/7/5--3/5--5/4-----------6-6-6/5--------------------------------------------|
G------------------------------------4--4/5-----------5---4-5-7/5/7--9/7-7/9-/19----------------|
D-------------------------------------------------------5---------------------------------------|
A-----------------------------------------------------------------------------------------------|
E-----------------------------------------------------------------------------------------------|
enjoy
aerohead




Ваше мнение



Капча