--------------------------------------------------------------------------------
DON’T ASK ME NO QUESTIONS – Lynyrd Skynyrd
--------------------------------------------------------------------------------
Tabbed by:Skynyrd1515
Tuning:EADGBe
e|--------------------------------------------------------------------|
B|--------------------------------------------------------------------|
G|----------2-6-7-7--2-4-5-5-5-3--------------------------------------|
D|-2-4-5-5--2-6-7-7--2-4-5-5-5-3-5------------------------------------|
A|-2-4-5-5--0-4-5-5--0-2-3-3-3-1-5------------------------------------|
E|-0-2-3-3-----------------------3------------------------------------|
2 times
e|--------------------------------------------------------------------|
B|---13-13-13-14-15-/17----------------------------------------------|
G|-----------------------14-14-12-12----------------------------------|
D|--------------------------------------------------------------------|
A|-----------------------------------8-7-5----------------------------|
E|--------------------------------------------------------------------|
This is the mini solo before the first verse

e|---------------------------------------------15---------------------|
B|---13-13-13-14-15-/17----------------------------------------------|
G|-----------------------14-13-12-12--14-15-16------------------------|
D|--------------------------------------------------------------------|
A|--------------------------------------------------------------------|
E|--------------------------------------------------------------------|
This is the second mini solo after the 1 verse
Sry..i aint got the real solo, but if u have it..feel free to add it.
The verse chords are..
C,D,G
C,D,G
C,D,F#m,D
G,D,C,G

| / slide up
| slide down
| h hammer-on
| p pull-off
| ~ vibrato
| + harmonic
| x Mute note
=======================================================================




Ваше мнение



Капча