Comin' Home - Lynyrd Skynyrd

verse riff bridge chorus
G|-------------------|------------------------3---|----------------------------------------------
D|-------------------|--------------------53-0-53-|----5-5-----5------------------345-555-5-44-3-
A|5-----353-----3-5--|---353-2-0---5-555-5--5----3|--------------023-333-3-3-35/7----------------
E|---035-----035-----|035--------3----------------|5-55----5-55----------------------------------

after chorus
--------------3--------------------------------------------------------|54----3----|
----------53-0-53------5-5-----5------------------345-555-5-44-3-------|---5-3---0--|
--55-555-5--5----3---------------023-333-3-3-35/7------------------5---|------------|
5-----------------5-55-----5-55----------------------------------5-----|------------|

tabbed by Achilles ([email protected])




Ваше мнение



Капча