-------------------------------------------------------------------------------
They call me the breeze by: Lynyrd Skynyrd
-------------------------------------------------------------------------------
Tabbed by:Ben a.k.a Woody
Email:[email protected]

Tuning:Standard

e|---------------------------------------------------------------------------|
B|---------------------------------------------------------------------------|
G|--------------2--2p---5--2-------2--2p---5----2--2p---5--2------5-2-4-2----|
D|--------------2--2p---5--2-------2--2p---5----2--2p---5--2------5-2-4-2----|
A|--/15/-----0--------0------3p0---------0----0-------0------3p0-------------|
E|-------------------------------3-------------------------------3-----------|

e|----------------------------------------------------------------------12----|
B|-----------10~--12b-10-12-10------------10~-10~----12b-10-10-12b-10-12--12--|
G|-----9--11------------------------9--11---------11--------------------------|
D|-/11--------------------------/11-------------------------------------------|
A|----------------------------------------------------------------------------|repeat-this-one-time
E|----------------------------------------------------------------------------|

Thats it for the intro this is 100% correct!

| / slide up
| slide down
| h hammer-on
| p pull-off
| ~ vibrato
| + harmonic
| x Mute note
===============================================================================




Ваше мнение



Капча