Date: Sat, 2 Sep 1995 01:19:55 +0200 (MET DST)
From: ctjahja
Subject: TAB: Lush - White wood
Lush - White Wood
Taken from the "Desire Lines" EP
First posted on Starlust on 1-Sept-95
* I wasn't able to figure the lyrics out completely, so
if anyone knows the correct version.. please do tell me!
[Intro /flanger]
e|---------------------------------------10--------------|
B|---9-10-------------------9-10-12-10-9-----------------|
G|-9------9-9-9-11-12-11--9-----------------9-11-12-11-9-|
D|-------------------------------------------------------|
A|-------------------------------------------------------|
E|-------------------------------------------------------|
Bm F
Just hold my hand and stroke my hair
Bm F
And ask me not to stand instead
D G
My mind is flattered everywhere
D G
And all around I see despair
A C E F
All is fairy love they say.. liars liars
A C E F#
I found only..... Love is cruel
A C E F
I can close my eyes and see something better
A C E F#
Fairytales and fantasy let me sleep, let me dream..
Bridge/End [w/ flanger & delay]
e|---------------------------------|
B|-12-13-13-10-10-12-13-13-13------|
G|---------------------------------|
D|---------------------------------|
A|---------------------------------|
E|---------------------------------|
Just hold my hand and stroke my hair
And ask me not to stand instead
My mind is flattered everywhere
And all around I see despair
My heart was broken long ago
I've come so far and sunk so low
The truth's a man without a soul
I'll find him every place I go
All is fairy love they say.. liars liars
I found only.... Love is cruel
I can close my eyes and ee something better
Fairytales and fantasy let me sleep, let me dream..
Just hold my hand and stroke my hair
And tell me everything's okay
I'm waiting for my billionaire
Just lie to me and say he's there
They say the truth is beautiful.. liars liars
What do they know of the dream anyway
I can close my eyes and be some place better
Fairytales and fantasy that's the world for me..


Ваше мнение



Капча