Date: Sun, 19 Nov 1995 22:40:35 -0800
From: [email protected] (Scott, Mari & Brian )
Subject: Tab: Leaves Me Cold

"Leaves Me Cold"
Written by Miki Berenyi
Transcribed by Brian Ebbitt
And Loomer
(Verse):
Em-C
Dreams deep heat teasing my mind
Sleep peels sweet stealing my sighs
She breathes deep when he's inside
Dreams deep heat poisons my mind

Chorus (w/slide)
e--12/15----|
b--12/15----|
g--12/15----|
d--12/15----|
a--12/15----|
E--12/15----|
Inside me there's a separate world
It's winning and I'm losing control
I'm coming but my eyes are closed
I'm coming but it leaves me cold

(Verse):
Night's bright lights dim in the day
Blind eyes smile at you today
I find I'm falling away
My eyesights never the same

(Chorus)
Inside me there's a separate girl
She's winning and I'm losing control
She coming but my eyes are closed
She's coming but I wake up and it leaves me cold

(Lead)

e-15--12--15--12--17--12--17--12--19-|
b-15--12--15--12--17--12--17--12--19-|
g-15--12--15--12--17--12--17--12--19-|
d-15--12--15--12--17--12--17--12--19-|
a-15--12--15--12--17--12--17--12--19-|
E-15--12--15--12--17--12--17--12--19-|

e-12--19--12--21-|
b-12--19--12--21-|
g-12--19--12--21-|
d-12--19--12--21-|
a-12--19--12--21-|
E-12--19--12--21-|

(chorus)
Inside me there's a separate girl
She's winning and I'm losing control
She coming but my eyes are closed
She's coming but I wake up and it leaves me cold

(Lead II)

e-15--12--15--12--17--12--17--12--19-|
b-15--12--15--12--17--12--17--12--19-|
g-15--12--15--12--17--12--17--12--19-|
d-15--12--15--12--17--12--17--12--19-|
a-15--12--15--12--17--12--17--12--19-|
E-15--12--15--12--17--12--17--12--19-|

e-12--19--12--21-|
b-12--19--12--21-|
g-12--19--12--21-|
d-12--19--12--21-|
a-12--19--12--21-|
E-12--19--12--21-|

When You reach "21" run slide up and down neck of guitar.





Ваше мнение



Капча