From: [email protected] (Simon Booth x8125)
Hypocrite - Lush
From the album "Split"

Bass Intro
|-----------------------------------------------------------------|
|-2-2-2-2---------------------------------------------------------|
|---------2-2-2-2-3-3-3-3-0-0-0-0---------0-0-0-0-2-2-2-2-3-3-3-3-|
|---------------------------------3-3-3-3-------------------------|
E5 G5
E5 G5
E5 F#5 G5 F#5

E5 G5
A Silly Girl
F#5 G5 E5
I Run around and never know my reasons
G5
And though laughing
F#5 G5 E5
with me I know what you say about me
G5
I can't explain
F#5 G5
It's not your business any way
E5 G5
So don't say you understand
F#5 G5
And don't pretend your on my side
E5 G5
And I remember when
F#5 G5 E5
You hated her for sleeping next to him
G5
I see your smiling face
F#5 G5
But I know you've done worse to me
E5 G5
You hypocrite
F#5 G5 E
Don't talk to me 'cause you're not fit to know me
G5
So don't pretend
F#5 G5
That you could've ever been a friend
E5 G5
And still
F#5 G5
I'm sure you think it's OK
E5 G5
What you've done
F#5 G5 E5
To me cause I'm so bad to him
E5
Don't even
G5 G5 E5
Try to hide behind that stupid lie
G5
I know your
F#5 G5 E5
Kind and I know where your loyalties lie
SOLO
E5 G5
|-----------------------------------------|
|-----------------------------------------|
|-----------12-11----14--14-14-14--12-11--|
|-14--14-14-------14----------------------|
|-----------------------------------------|
|-----------------------------------------|
F#5 G5
|-----------------------------------------|
|-----------------------------------------|
|-----------11-9----11--11-11--12-11------|
|-12--12-12------12-----------------------|
|-----------------------------------------|
|-----------------------------------------|
E5 G5
|-----------------------------------------|
|-----------12--12-12---------------------|
|---------------------14-14-12-11---------|
|-14--14-14-------------------------------|
|-----------------------------------------|
|-----------------------------------------|
F#5 G5
|-----------------------------------------|
|-----------------------------------------|
|-----------------------------------------|
|-14--14-14-14-14-14-14-14-12-12-12-11----|
|-----------------------------------------|
|-----------------------------------------|
E5 G5
E5 G5
E5 G5
The Silly girls
F#5 G5
We run around and never know our reasons
E5 G5
And though I understand
F#5 G5 E5
I guess I'll say that you betrayed me
G5
I am a hypocrite
F#5 G5
I dish it out but I can't take it
E5 G5
I know you think it's wrong
F#5 G5 E5
And maybe you're right but this is my song
G5
And still
F#%
I'm sure you think It's Ok
E5 G5
What she did
F#5 G5 E5
To me cause I'm so bad to him
G5
Don't even
F#5 G5 E5
try to hide behind that stupid smile
G5
I know
F#5 G5 E
Our kind and I know where our loyalties lie
-----------------------------
CHORDS:
E5 022xxx (I play it like this anyway !) OR: x799xxx ??
G5 355xxx
F#5 244xxx

This is as close as I can get it.... Any correction gratefuly received !
Date: Sat, 18 Nov 1995 21:36:01 -0800
From: [email protected] (Scott, Mari & Brian )
To: [email protected]
Note: This is still put together wrong but the
chords are right.
Intro:
G-C-G-C

G C
A Silly Girl
B C G
I Run around and never know my reasons
C
And though you're laughing
B C G
with me I know what you say about me
Em C
I can't explain
D Am
It's not your business any way
Em C
So don't say you understand
D Am
And don't pretend your on my side
G C
And I remember when
B C G
You hated her for sleeping next to him
C
I see your smiling face
B C
But I know you've done worse to me
Em C
You hypocrite
D Am Em
Don't talk to me 'cause you're not fit to know me
C
So don't pretend
D Am
That you could've ever been a friend
Em C
And still
D Am
I'm sure you think it's OK
Em C
What you've done
D Am Em
To me cause I'm so bad to him
C
Don't even
D Am Em
Try to hide behind that stupid lie
C
I know your
D Am Em
Kind and I know where your loyalties lie
SOLO
E5 G5
|-----------------------------------------|
|-----------------------------------------|
|-----------12-11----14--14-14-14--12-11--|
|-14--14-14-------14----------------------|
|-----------------------------------------|
|-----------------------------------------|
F#5 G5
|-----------------------------------------|
|-----------------------------------------|
|-----------11-9----11--11-11--12-11------|
|-12--12-12------12-----------------------|
|-----------------------------------------|
|-----------------------------------------|
E5 G5
|-----------------------------------------|
|-----------12--12-12---------------------|
|---------------------14-14-12-11---------|
|-14--14-14-------------------------------|
|-----------------------------------------|
|-----------------------------------------|
F#5 G5
|-----------------------------------------|
|-----------------------------------------|
|-----------------------------------------|
|-14--14-14-14-14-14-14-14-12-12-12-11----|
|-----------------------------------------|
|-----------------------------------------|
VERSE(arpegiated)[sp]
Em
The Silly girls
C D
We run around and never know our reasons
Am Em
And though I understand
B C
I guess I'll say that you betrayed me
Em
I am a hypocrite
C D
I dish it out but I can't take it
Am Em
I know you think it's wrong
C D Am
And maybe you're right but this is my song
G
And still
C
I'm sure you think It's Ok
B C
What she did
G C B
To me cause I'm so bad to him
C
Don't even
G C B
try to hide behind that stupid smile
C
I know
G C B
Our kind and I know where our loyalties lie
-----------------------------
CHORDS:
G C B Am D Em
e---3--0--2--0--2--0--------------
b---3--1--4--1--3--0-------------
g---0--0--4--2--2--0-------------
d---0--2--4--2--0--2-------------
a---2--3--2--0--x--2-------------
E---3--x--x--x--x--0-------------





Ваше мнение



Капча