Date: Sat, 18 Nov 1995 15:06:36 -0800
From: [email protected] (Scott, Mari & Brian )
Subject: TAB: Lush - Girl's World
Lush - Girl's World
Taken from the "Desire Lines" EP
First posted on Starlust on 1-Sept-95
(Dsus xx0233)
D Dsus A F G
You can be... someone but you can't be me
D Dsus A F G
And I know.. that somehow I will never be free
Bm F#m F G
Years ago in your dark clans I was dressed like a toy
Bm F#m
Now this doll has her own hands
F G
And she wishes you fair joy
Bm F#m
Smashing glasses and breaking vases
F G
You lie to me over and over
Bm F#m F
You never listened to me
[Solo w/ flanger]
e|-----------------------------------------------------------|
B|-----------------------------------------------------------|
G|--9/11-11-11-9/11-11-11-12-11-9--9-11-9--------------------|
D|----------------------------------------12--12-12-12-------|
A|-----------------------------------------------------------|
E|-----------------------------------------------------------|
e|-----------------------------------------------------------|
B|-----------------------------------------------------------|
G|----9----------------------9/11-11-11-9/11-11-11-12-11-9---|
D|-12---12-12-9-9-9-10-9/7-----------------------------------|
A|-----------------------------------------------------------|
E|-----------------------------------------------------------|
e|-----------------------------------------------------------|
B|-----------------------------------------------------------|
G|----------------------------------9------------------------|
D|-----9-11-12-12-12-12-12-12-12-12---12-9-9-9-10-9/7--------|
A|-12--------------------------------------------------------|
E|-----------------------------------------------------------|
You can be someone but you can't be me
And I know somehow I will never be free
Years ago in your dark clans
I was dressed like a toy
Now this doll has her own hands
And she wishes you fair joy
You can be someone but you can't be me
And I know that somehow I will never be free
When there might be another it makes you shiver in the cold
That is why don't bother involving you in my world
Smashing glasses and breaking vases
You lie to me over and over
You never listened to me
There was to much a fraction
You treated me as if I were clay
Hope became like a present
In my mind I can't drive it away
Smashing glasses and breaking vases
You lie to me over and over
You never listened to me
To me.. to me..





Ваше мнение



Капча