Вступление (строй гитары опущен на один тон!):

D||--------7-------------(0)------|-------(0)---------(0)----|
A||-----8-----8-------10------10--|-----7-----7-----7-----7--| > 2 раза
F||--9----------9/11------11------|--8-----8-----8-----8-----|

B F A
|-------(0)---------(0)----|--------(0)------(0)-------||
|-----5-----5-----3-----3--|------7--------7--------7--|| > 2 раза
|--5-----5-----4-----4-----|-4/8--------8--------8-----||


Dm Em7 A Dm Em7 A
Берега укутались снегами, дни ноября сложились в журавля.
B F A B F A
Он улетел, исчез за облаками, а утром стали белыми поля.

Пришла зима, все это как всегда, но может неспроста, да может неспроста.
Сегодня первый белый день... Давай начнем все с чистого листа!

D5 E5 A5 Db5
Назови мне свое имя, я хочу узнать тебя снова
Все по кругу, но все будет иначе, я даю тебе слово
B5 F5 A5 B-5
Назови мне свое имя, я хочу узнать тебя снова
Все по кругу, но все будет иначе, я даю тебе слово!

Проигрыш = вступление (с вариациями)

Пустые дни различны лишь календарями, а в остальном - как капельки воды,
И разбежаться - самый легкий выбор, подальше с глаз, и все расстаяло, как дым...

Припев

Перебор в последнем куплете:

B F E7 Asus4 A
D|-----0-------0---|-----0-------0---|-----0-------0---|-----0-------0---|
A|---5---5---5---5-|---3---3---3---3-|---2---2---2---2-|---4---4---4---4-|
F|-5-------5-------|-4-------4-------|-3-------3-------|-4-------4-------|

B F E7 Asus4 A
|-----0-------0---|-----0-------0---|-----0-------0---|-----0---7---------|
|---5---5---5---5-|---3---3---3---3-|---2---2---2---2-|---7---7---10---10-|
|-5-------5-------|-4-------4-------|-3-------3-------|-8------------8----|

B F
Я чего-то не понимаю, скорее всего, не понимаю всего,
E7 Asus4 A
Но то, что мы до сих пор не убили друг друга похоже на доброе волшебство.
Вчера мы припасли друг для друга гранаты, и завтра могли уже просто не встать,
Но сегодня такой светлый день, давай все начнем с пустого листа...

Припев

Кода: D5 | E5 | F5 | A5
D5 | E5 | A5 | A5
G5 | F5 | E5 | E5
G5 | F5 | A5 | A5 | D5




Ваше мнение



Капча

Комментарии

Кью
Дааа...дайте мне шанс!!!!!!!!!!!!!!!!!!!!!!!!!!!!!!!!!!!!
Кая
Это моя любимая,у Люмена)) Любому в мире нужно дать шанс, всё можно исправить кроме смерти)