Вступление
G-----4---------4---------4---------4--|
D-2-2---2---4-4---4---5-5---5---4-4---4|
A--------------------------------------|
G-----4---------4---------4---------2--|
D-2-2---2---4-4---4---5-5---5---1-1---1|
A--------------------------------------|
После прикольно играть в две гитары
A-7-7-7-7---2-2-2-2-------------2-2-2-2|Первая гитара
E---------------------3-3-3-3----------|
Играть одновременно
G-----4---------4---------4---------4--|
D-2-2---2---4-4---4---5-5---5---4-4---4|Вторая гитара
A--------------------------------------|
D-------------------------------1-1-1-1|
A-7-7-7-7---2-2-2-2--------------------|Первая гитара
E---------------------3-3-3-3----------|
Играть одновременно
G-----4---------4---------4---------2--|
D-2-2---2---4-4---4---5-5---5---1-1---1|Вторая гитара
A--------------------------------------|

E5 H5 G5 D#dim5
У тебя на коленках свернулся калачик
E5 H5 C5 D#dim5
Спит котенок тихо плачет
A5 D#dim5 E5 G5
Котенки не плачте и люди не плачте |2 раза
Все остались в живых все было иначе |
У нее в лодошках мертвая птичка
Судьба злодейка короткая спичка
Птички не плачте и люди не плачте |2 раза
Все остались довольны все было иначе |
У меня в руках справка а что это значит
Я болен спидом вот не удача
Но я не плачу и вы не плачте |2 раза
Все было иначе все будет иначе |




Ваше мнение



Капча

Комментарии

Иттория Пуччини
Не позорьте текси глупыми ошибками!) ПлачЬте!!