From: Maks [email protected]

Государство
Standard tuning: EBGDAE
Вступление:
|------------------------------------------------------------------------------------------------------------------------------------------------------------------
|------------------------------------------------------------------------------------------------------------------------------------------------------------------
|------------------------------------------------------------------------------------------------------------------------------------------------------------------
|-----××-----34-----22-----020-----------××-----34-----22-----02020----------××-----34-----22------020---------××-----34------2-------0234320 - 3 раза
|--3-------------------------------------3-----------------------------------------3-------------------------------------3---------------------------------------
|------------------------------------------------------------------------------------------------------------------------------------------------------------------
Куплет:
|------------------------------------------------------------------------------------------------------------------------------------------------------------------
|------------------------------------------------------------------------------------------------------------------------------------------------------------------
|------------------------------------------------------------------------------------------------------------------------------------------------------------------
|---44-----------------44-----------------44------------------44-------------------44----------------------44--------------------44-------------------44---
|---44---222----00--44---222---00----44----222---00----44----234---00----44-----222------00---44-----222---00-----44-----222---00----44---
|---22-----------------22-----------------22------------------22-------------------22----------------------22--------------------22-------------------22---
Припев:
|------------------------------------------------------------------------------------------------------------------------------------------------------------------
|------------------------------------------------------------------------------------------------------------------------------------------------------------------
|------------------------------------------------------------------------------------------------------------------------------------------------------------------
|---4---3---5-----4---3---5--------555444433---44---55--------------555444433---44---55----------555444433------------------------------------
|---4---3---5-----4---3---5--------555444433---44---55--------------555444433---44---55----------555444433------------------------------------
|---2---1---3-----2---1---3--------333222211---22---33--------------333222211---22---33----------333222211------------------------------------
Проигрыш:
|---------------------
|---------------------
|--------------------- - 4 раза
|---33---00000000
|---33---00000000
|---11---00000000
2 Куплет:
|------------------------------------------------------------------------------------------------------------------------------------------------------------------
|------------------------------------------------------------------------------------------------------------------------------------------------------------------
|------------------------------------------------------------------------------------------------------------------------------------------------------------------
|---44-----------------44-----------------55------------------55-------44-----------------44--------------------44-------------------55----------------55-
|---44---222----00--44---222---00----55----222---00----55-------44----------------44-----222---00-----44-----222---00----55---222---00--55-
|---22-----------------22-----------------33------------------33-------22-----------------22--------------------22-------------------33----------------33-
Припев:
|------------------------------------------------------------------------------------------------------------------------------------------------------------------
|------------------------------------------------------------------------------------------------------------------------------------------------------------------
|------------------------------------------------------------------------------------------------------------------------------------------------------------------
|---4---3---5-----4---3---5--------555444433---44---55--------------555444433---44---55----------555444433------------------------------------
|---4---3---5-----4---3---5--------555444433---44---55--------------555444433---44---55----------555444433------------------------------------
|---2---1---3-----2---1---3--------333222211---22---33--------------333222211---22---33----------333222211------------------------------------
Вступление:
|------------------------------------------------------------------------------------------------------------------------------------------------------------------
|------------------------------------------------------------------------------------------------------------------------------------------------------------------
|------------------------------------------------------------------------------------------------------------------------------------------------------------------
|-----××-----34-----22-----020-----------××-----34-----22-----02020----------××-----34-----22------020---------××-----34------2-------0234320 - 2 раза
|--3-------------------------------------3-----------------------------------------3-------------------------------------3---------------------------------------
|------------------------------------------------------------------------------------------------------------------------------------------------------------------
Припев:
|------------------------------------------------------------------------------------------------------------------------------------------------------------------
|------------------------------------------------------------------------------------------------------------------------------------------------------------------
|------------------------------------------------------------------------------------------------------------------------------------------------------------------
|---4---3---5-----4---3---5--------555444433---44---55--------------555444433---44---55----------555444433------------------------------------
|---4---3---5-----4---3---5--------555444433---44---55--------------555444433---44---55----------555444433------------------------------------
|---2---1---3-----2---1---3--------333222211---22---33--------------333222211---22---33----------333222211------------------------------------

Заключение:
|------------------------------------------------------------------------------------------------------------------------------------------------------------------
|------------------------------------------------------------------------------------------------------------------------------------------------------------------
|------------------------------------------------------------------------------------------------------------------------------------------------------------------
|-----××-----34-----22-----020-----------××-----34-----22-----02020----------××-----34-----22------020---------××-----34------2-------0234320
|--3-------------------------------------3-----------------------------------------3-------------------------------------3---------------------------------------
|------------------------------------------------------------------------------------------------------------------------------------------------------------------

Это мой первый серьезный подбор, так что не судите строго!




Ваше мнение



Капча

Комментарии

ELLE
Вся правда в этой песне..