Title: You's A Ho
Artist: Ludacris
Album: Back for the First Time
Tabbed by: Taylor ([email protected])
G|--------------|--------------|---------------------------|
D|-------2-----2|-------2-----2|--------0------------------|
A|-0------------|0-------------|0--------------2----------2|
E|--------------|--------------|----------3---------1------|

G|------------|-----------|
D|-----2-----2|-----------|
A|------------|0----------|
E|0-----------|-----------|
That's basically the bass line for the entire song. You can
mess around on and A minor chord for a solo if you want.
But that's it. Have fun.




Ваше мнение



Капча