I know the Intro is a lil messt up but main riff is pefect.

Intro :
e-----------------0--5--7-----
B--------------4--------------
G-----------3-----------------
D--------2--------------------
A-----1-----------------------
E--0--------------------------

Main Riff:
Rasp Up
e----------------|-------------|----------------|---------------
B----------------|-------------|----------------|---------------
G----------------|-------------|----------------|---------------
D----------------|-------------|----------------|---2---1-------
A----------------|-------------|----------------|---3---2-------
E--0--3--0--2--5-|--0--3--0--2-|--0--3--0--2--5-|---0---0-------

Holla!




Ваше мнение



Капча